Nobody Knew - You And Me Chords & Tabs

 

You And Me Chords & Tabs

Nobody Knew Chords & Tabs

Version: 1 Type: Chords

You And Me Chords

   
---------------------------------------------------------------------------
			     YOU & ME - Nobody Knew
---------------------------------------------------------------------------
Tabbed by: Eric Minardi
Email: nobodyknew_music@hotmail.com

Tuning: Standard

Chords used:
	G	Cadd?	Dsus4	D
e|------3-------3-------3-------2-----------------------------------------|
B|------3-------3-------3-------3-----------------------------------------|
G|------0-------0-------2-------2-----------------------------------------|
D|------0-------2-------0-------0-----------------------------------------|
A|------2-------3-------x-------x-----------------------------------------|
E|------3-------x-------x-------x-----------------------------------------|


INTRO: G Cadd G Cadd Dsus4 D

G		    C
It can`t always be, what you want to see
G	      C  G                C
Your hurting me, but  i hope you didn`t mean it
G          C          G                 Dsus4
I bet your sorry now, since you lost me somehow
G              Dsus4 D                Dsus4
But i just have to step out of this nightmare

[ Tab from: http://www.guitartabs.cc/tabs/n/nobody_knew/you_and_me_crd.html ]
G                    C
It`s pooring outside (It`s pooring outside)
G                      C
And my heart beat just died (my heart beat just died)
G               C
I thought i`d be, you and me
G                           C
Instead you brought him along


G C Dsus4 G


G                C Dsus4
My life feels to long
                G                      C Dsus4
Ending it would just be wrong (just be wrong)
G             C          Dsus4
But maybe there’s another way
            D
If only you would stay


G                    C
It`s pooring outside (It`s pooring outside)
G                      C
And my heart beat just died (my heart beat just died)
G               C
I thought i`d be, you and me
G                C
Instead you brought him along


G C Dsus4 D Dsus4 D


G              C
I was surrounded by your love
G              C
And now I've surrendered
G                      Dsus4
And now your anger has entered
D                   Dsus4
I'm just another guy again.


OUTRO:


G C Dsus4 D Dsus4 D
G C Dsus4 D Dsus4 D
G C Dsus4
G C Dsus4
G