Nobody Knew - 18 Chords & Tabs

 

18 Chords & Tabs

Nobody Knew Chords & Tabs

Version: 1 Type: Bass Tab

18 Bass Tab

---------------------------------------------------------------------------
			     18 - Nobody Knew
---------------------------------------------------------------------------

Tabbed by: Eric
Tuning: Standard

www.nobodyknew.net
www.myspace.com/nobodyknew
nobodyknew_music@hotmail.com

(0:08)
G|------------------------------------------------------------------------|
D|------------------------------------------------------------------------|
A|------------------------------------------------------------------------|
E|--6~---6~-----/10~---10~-----6~---6~-----/10~~~-------------------------|


(0:24) (x2) [CHORUS]
G|------------------------------------------------------------------------|
D|-------------------------------3p2h3------------------------------------|
A|--11111--1111/3333/55555--5555------------------------------------------|
E|------------------------------------------------------------------------|

(0:39)
G|---------------222000---------------------------------------------------|
D|----------------------333p2h3p2-----------------------------------------|
A|--111111/33333------------------111111/3~-------------------------------|
E|------------------------------------------------------------------------|

(0:51) (strumming possible)
G|------------------------------------------------------------------------|
D|------------------------------------------------------------------------|
A|------------------------------------------------------------------------|
E|--6~---6~-----/10~---10~-----6~---6~------/10---------------------------|


(1:06)
G|------------------------------------------------------------------------|
D|------------------------------------------------------------------------|
A|--11111-11111--55555-55555--11111-11111-5~----5~------------------------|
E|------------------------------------------------------------------------|

(1:20) (x2) [CHORUS]
G|------------------------------------------------------------------------|
D|-------------------------------3p2h3------------------------------------|
A|--11111--1111/3333/55555--5555------------------------------------------|
E|------------------------------------------------------------------------|

(1:34)
G|---------------222000---------------------------------------------------|
D|----------------------333p2h3p2-----------------------------------------|
A|--111111/33333------------------111111/3~-------------------------------|
E|------------------------------------------------------------------------|

(1:45)
G|------------------------------------------------------------------------|
D|------------------------------------------------------------------------|
A|-11111-11111--55555-55555--1~---1~---55555-55555------------------------|
E|------------------------------------------------------------------------|
[ Tab from: http://www.guitartabs.cc/tabs/n/nobody_knew/18_btab.html ]
(2.13)
G|------------------------------------------------------------------------|
D|------------------------------------------------------------------------|
A|--11111-11111--55555-55555--11111-11111-5~----5~------------------------|
E|------------------------------------------------------------------------|

(2:27) (x2) [CHORUS]
G|------------------------------------------------------------------------|
D|-------------------------------3p2h3------------------------------------|
A|--11111--1111/3333/55555--5555------------------------------------------|
E|------------------------------------------------------------------------|

(2:41)
G|---------------222000---------------------------------------------------|
D|----------------------333p2h3p2-----------------------------------------|
A|--111111/33333------------------111111/3~-------------------------------|
E|------------------------------------------------------------------------|

(2:52)
G|--2~---0~---2~---0~---2~---0~---2~---0~---------------------------------|
D|------------------------------------------------------------------------|
A|------------------------------------------------------------------------|
E|------------------------------------------------------------------------|

(3:06)(x14) thenn...(3:31)
G|--2-0------------|--2-0---2-0---2-0---2-0-------------------------------|
D|------3-2-3-2----|------3-----3-----3-----3-----------------------------|
A|-----------------|------------------------------------------------------|
E|-----------------|------------------------------------------------------|

(3:34)
G|------------------------------------------------------------------------|
D|-------------------------------3p2h3------------------------------------|
A|--11111--1111/3333/55555--5555------------------------------------------|
E|------------------------------------------------------------------------|

(3:48)
G|---------------222000---------------------------------------------------|
D|----------------------333p2h3p2-----------------------------------------|
A|--111111/33333------------------111111/3~-------------------------------|
E|------------------------------------------------------------------------|

(3:59)
G|-------------------------------------------------------------------------|
D|-------------------------------------------------------------------------|
A|-------------------------------------------------------------------------|
E|--66666---88888---66666---88888------------------------------------------|

(4:13) (repeart until last end)
G|------------------------------------------------------------------------|
D|------------------------------------------------------------------------|
A|------------------------------------------------------------------------|
E|--66666666666666666666-8888888888888888888888---------------------------|

(4:42) (end on...)
G|------------------------------------------------------------------------|
D|------------------------------------------------------------------------|
A|---5~~~~~~--------------------------------------------------------------|
E|------------------------------------------------------------------------|