Noam Kaniel - Heathcliff Chords & Tabs

 

Heathcliff Chords & Tabs

Noam Kaniel Chords & Tabs

Version: 1 Type: Tab 0 ratings
1 star 2 stars 3 stars 4 stars 5 stars
comments

Heathcliff Tab

              Heathcliff And The Catillac Cats · Les Entrechats
                


Voice
                                                                   
E||------------------|------------------|--3--3--3-----0-0--2-----|
B||------------------|------------------|-----------3-------------|
G||------------------|------------------|-------------------------|
D||------------------|------------------|-------------------------|
A||------------------|------------------|-------------------------|
E||------------------|------------------|-------------------------|


                                                                            
------------------------|--3--3--3-----0-0--2-----|------------------------|
--1--1--1----3-5--3-----|-----------3-------------|--1--1--1----3-5--3-----|
------------------------|-------------------------|------------------------|
------------------------|-------------------------|------------------------|
------------------------|-------------------------|------------------------|
------------------------|-------------------------|------------------------|


                                                                 
------3------------|------------------|--3--3--3-----0-0--2-----|
------3------------|------------------|-----------3-------------|
------0------------|------------------|-------------------------|
-------------------|------------------|-------------------------|
-------------------|------------------|-------------------------|
-------------------|------------------|-------------------------|


                                                                              
-------------------------|--3--3--3-----0-0--2-----|-------------------------|
--1--1--1--1--3-5--3-----|-----------3-------------|--1--1--1--1--3-5--3-----|
-------------------------|-------------------------|-------------------------|
-------------------------|-------------------------|-------------------------|
-------------------------|-------------------------|-------------------------|
-------------------------|-------------------------|-------------------------|


                                                                             
--0--0--0--0-2---------|--0--0--0--2-3---2--0-----|--0--0--0---0-2-2--2-----|
-----------------------|-----------------------3--|-------------------------|
-----------------------|--------------------------|-------------------------|
-----------------------|--------------------------|-------------------------|
-----------------------|--------------------------|-------------------------|
-----------------------|--------------------------|-------------------------|


                                                                              
--0--0--0--2-3---2--0-----|--3--3--3-----0-0--2-----|------------------------|
-----------------------3--|-----------3-------------|--1--1--1----3-5--3-----|
--------------------------|-------------------------|------------------------|
--------------------------|-------------------------|------------------------|
--------------------------|-------------------------|------------------------|
--------------------------|-------------------------|------------------------|


                                                                      
--3--3--3-----0-0--2-----|------------------------|------------------|
-----------3-------------|--1--1--1----3-5--3-----|------------------|
-------------------------|------------------------|------------------|
-------------------------|------------------------|------------------|
-------------------------|------------------------|------------------|
-------------------------|------------------------|------------------|


                                                                            
------------------|------------------|------------------|------------------|
------------------|------------------|------------------|------------------|
------------------|------------------|------------------|------------------|
------------------|------------------|------------------|------------------|
------------------|------------------|------------------|------------------|
------------------|------------------|------------------|------------------|


                                                         
------------------|------------------|------------------|
------------------|------------------|------------------|
------------------|------------------|------------------|
------------------|------------------|------------------|
------------------|------------------|------------------|
------------------|------------------|------------------|


                                                                             
--3--3--3-----0-0--2-----|------------------------|--3--3--3-----0-0--2-----|
-----------3-------------|--1--1--1----3-5--3-----|-----------3-------------|
-------------------------|------------------------|-------------------------|
-------------------------|------------------------|-------------------------|
-------------------------|------------------------|-------------------------|
-------------------------|------------------------|-------------------------|


                                                                
------------------------|------3------------|------------------|
--1--1--1----3-5--3-----|------3------------|------------------|
------------------------|------0------------|------------------|
------------------------|-------------------|------------------|
------------------------|-------------------|------------------|
------------------------|-------------------|------------------|


                                                                              
--3--3--3-----0-0--2-----|-------------------------|--3--3--3-----0-0--2-----|
-----------3-------------|--1--1--1--1--3-5--3-----|-----------3-------------|
-------------------------|-------------------------|-------------------------|
-------------------------|-------------------------|-------------------------|
-------------------------|-------------------------|-------------------------|
-------------------------|-------------------------|-------------------------|


                                                                             
-------------------------|--0--0--0--0-2---------|--0--0--0--2-3---2--0-----|
--1--1--1--1--3-5--3-----|-----------------------|-----------------------3--|
-------------------------|-----------------------|--------------------------|
-------------------------|-----------------------|--------------------------|
-------------------------|-----------------------|--------------------------|
-------------------------|-----------------------|--------------------------|


                                                                               
--0--0--0---0-2-2--2-----|--0--0--0--2-3---2--0-----|--3--3--3-----0-0--2-----|
-------------------------|-----------------------3--|-----------3-------------|
-------------------------|--------------------------|-------------------------|
-------------------------|--------------------------|-------------------------|
-------------------------|--------------------------|-------------------------|
-------------------------|--------------------------|-------------------------|


                                                                            
------------------------|--3--3--3-----0-0--2-----|------------------------|
--1--1--1----3-5--3-----|-----------3-------------|--1--1--1----3-5--3-----|
------------------------|-------------------------|------------------------|
------------------------|-------------------------|------------------------|
------------------------|-------------------------|------------------------|
------------------------|-------------------------|------------------------|


                                                                            
------------------|------------------|------------------|------------------|
------------------|------------------|------------------|------------------|
------------------|------------------|------------------|------------------|
------------------|------------------|------------------|------------------|
------------------|------------------|------------------|------------------|
------------------|------------------|------------------|------------------|


                                                                        
--3------2--0----2--3--|---------0-------0--2--|--3------2--0----2--3--|
-----------------------|--1---------3----------|-----------------------|
-----------------------|-----------------------|-----------------------|
-----------------------|-----------------------|-----------------------|
-----------------------|-----------------------|-----------------------|
-----------------------|-----------------------|-----------------------|


                                                                          
---------0------------|--5--5--5--0--2-2--4-----|-------------0-2--0-----|
--1---------3----4----|-------------------------|--3--3--3---------------|
----------------------|-------------------------|------------------------|
----------------------|-------------------------|------------------------|
----------------------|-------------------------|------------------------|
----------------------|-------------------------|------------------------|


                                                                           
--5--5--5--0--2-2--4-----|-----0-2--0----0--2-4--2-0--|--5----------------|
-------------------------|--3---------3---------------|-------------------|
-------------------------|----------------------------|--6----------------|
-------------------------|----------------------------|-------------------|
-------------------------|----------------------------|--7----------------|
-------------------------|----------------------------|-------------------|


            
----------||
----------||
----------||
----------||
----------||
----------||


-------------------------------------------------------------------------------------------------

              Heathcliff And The Catillac Cats · Les Entrechats                 


Trumpet in C
                                                                               
E||------------------|------------------|------------------|------------------|
B||------------------|------------------|------------------|------------------|
G||------------------|------------------|------------------|------------------|
D||------------------|------------------|------------------|------------------|
A||------------------|------------------|------------------|------------------|
E||------------------|------------------|------------------|------------------|


                                                                            
------------------|------------------|------------------|------------------|
------------------|------------------|------------------|------------------|
------------------|------------------|------------------|------------------|
------------------|------------------|------------------|------------------|
------------------|------------------|------------------|------------------|
------------------|------------------|------------------|------------------|


                                                                 
------------------|--------------0------|----3------0-0--2-2----|
------------------|------------3----3---|-----------------------|
------------------|---------------------|-----------------------|
------------------|---------------------|-----------------------|
------------------|---------------------|-----------------------|
------------------|---------------------|-----------------------|


                                                                        
-------------0---------|----------------0------|----------------0------|
----1------3----3-3----|----------3-3-3----3---|----------3-3-3----3---|
-----------------------|-----------------------|-----------------------|
-----------------------|-----------------------|-----------------------|
-----------------------|-----------------------|-----------------------|
-----------------------|-----------------------|-----------------------|


                                                                        
----------------0------|----------------0------|----3------0-0--2-2----|
----------3-3-3----3---|----------3-3-3----3---|-----------------------|
-----------------------|-----------------------|-----------------------|
-----------------------|-----------------------|-----------------------|
-----------------------|-----------------------|-----------------------|
-----------------------|-----------------------|-----------------------|


                                                                        
-------------0---------|----3------0-0--2-2----|-------------0---------|
----1------3----3-3----|-----------------------|----1------3----3-3----|
-----------------------|-----------------------|-----------------------|
-----------------------|-----------------------|-----------------------|
-----------------------|-----------------------|-----------------------|
-----------------------|-----------------------|-----------------------|


                                                                            
------------------|------------------|------------------|------------------|
------------------|------------------|------------------|------------------|
------------------|------------------|------------------|------------------|
------------------|------------------|------------------|------------------|
------------------|------------------|------------------|------------------|
------------------|------------------|------------------|------------------|


                                                                            
------------------|------------------|------------------|------------------|
------------------|------------------|------------------|------------------|
------------------|------------------|------------------|------------------|
------------------|------------------|------------------|------------------|
------------------|------------------|------------------|------------------|
------------------|------------------|------------------|------------------|


                                                                            
------------------|------------------|------------------|------------------|
------------------|------------------|------------------|------------------|
------------------|------------------|------------------|------------------|
------------------|------------------|------------------|------------------|
------------------|------------------|------------------|------------------|
------------------|------------------|------------------|------------------|


                                                                               
------------------|------------------|------------------|--------------0------|
------------------|------------------|------------------|------------3----3---|
------------------|------------------|------------------|---------------------|
------------------|------------------|------------------|---------------------|
------------------|------------------|------------------|---------------------|
------------------|------------------|------------------|---------------------|


                                                                             
----3------0-0--2-2----|-------------0---------|----------10-10-10-12--10---|
-----------------------|----1------3----3-3----|----------------------------|
-----------------------|-----------------------|----------7--7--------------|
-----------------------|-----------------------|----------------12-14--12---|
-----------------------|-----------------------|----------------------------|
-----------------------|-----------------------|----------------------------|


                                                          
----------10-10-10-12--10---|----------10-10-10-12--10---|
----------------------------|----------------------------|
----------------------------|----------------------------|
----------12-12-12-14--12---|----------12-12-12-14--12---|
----------------------------|----------------------------|
----------------------------|----------------------------|


                                                            
----------10-10-10-12--10---|----15----15----12-12--14-14--|
----------------------------|------------------------------|
----------------------------|------------------------------|
----------12-12-12-14--12---|------------------------------|
----------------------------|------------------------------|
----------------------------|------------------------------|


                                                              
----------------10-12--10-10--|----15----15----12-12--14-14--|
----13----13------------------|------------------------------|
------------------------------|------------------------------|
------------------------------|------------------------------|
------------------------------|------------------------------|
------------------------------|------------------------------|


                                                            
----------------10-12--10-10--|----------10-10-10-12--10---|
----13----13------------------|----------------------------|
------------------------------|----------------------------|
------------------------------|----------12-12-12-14--12---|
------------------------------|----------------------------|
------------------------------|----------------------------|


                                                          
----------10-10-10-12--10---|----------10-10-10-12--10---|
----------------------------|----------------------------|
----------------------------|----------------------------|
----------12-12-12-14--12---|----------12-12-12-14--12---|
----------------------------|----------------------------|
----------------------------|----------------------------|


                                                          
----------10-10-10-12--14---|----15--------15-15--15-15--|
----------------------------|----------------------------|
----------------------------|----16--------16-16--16-16--|
----------12-12-12-14--16---|----------------------------|
----------------------------|----------------------------|
----------------------------|----------------------------|


                                                          
----15--------15-15--15-15--|----15--------15-15--15-15--|
----------------------------|----------------------------|
----17--------17-17--17-17--|----16--------16-16--16-16--|
----------------------------|----------------------------|
----------------------------|----------------------------|
----------------------------|----------------------------|


                                                            
----15--------15-15--16-16--|----17----17----14-14--16-16--|
--------------15-15--16-16--|------------------------------|
----17----------------------|------------------------------|
----------------------------|------------------------------|
----------------------------|------------------------------|
----------------------------|------------------------------|


                                                              
----------------12-12--12-12--|----17----17----14-14--16-16--|
----15----15------------------|------------------------------|
------------------------------|------------------------------|
------------------------------|------------------------------|
------------------------------|------------------------------|
------------------------------|------------------------------|


                                                              
--14--------16--------|------------------|------------------||
------------14--------|------------------|------------------||
--14------------------|------------------|------------------||
----------------------|------------------|------------------||
----------------------|------------------|------------------||
----------------------|------------------|------------------||


------------------------------------------------------------------------------------------

              Heathcliff And The Catillac Cats · Les Entrechats                 


Electric Guitar 1
                                                                               
E||------------------|------------------|------------------|------------------|
B||------------------|------------------|------------------|------------------|
G||------------------|------------------|------------------|------------------|
D||------------------|------------------|------------------|------------------|
A||------------------|------------------|------------------|------------------|
E||------------------|------------------|------------------|------------------|


                                                              
------------------|------------------|--3----3----0--0-0-----|
------------------|------------------|-----------------------|
------------------|------------------|-----------------------|
------------------|------------------|-----------------------|
------------------|------------------|-----------------------|
------------------|------------------|-----------------------|


                                                              
-----------------------|------------------|------------------|
--1----1----3--3-3-----|------------------|------------------|
-----------------------|------------------|------------------|
-----------------------|------------------|------------------|
-----------------------|------------------|------------------|
-----------------------|------------------|------------------|


                                                                            
------------------|------------------|------------------|------------------|
------------------|------------------|------------------|------------------|
------------------|------------------|------------------|------------------|
------------------|------------------|------------------|------------------|
------------------|------------------|------------------|------------------|
------------------|------------------|------------------|------------------|


                                                                            
------------------|------------------|------------------|------------------|
------------------|------------------|------------------|------------------|
------------------|------------------|------------------|------------------|
------------------|------------------|------------------|------------------|
------------------|------------------|------------------|------------------|
------------------|------------------|------------------|------------------|


                                                              
------------------|------------------|-----------------------|
------------------|------------------|-----------------------|
------------------|------------------|--0----0---------------|
------------------|------------------|------------2--4-4-----|
------------------|------------------|-----------------------|
------------------|------------------|-----------------------|


                                                                        
-----------------------|-----------------------|-----------------------|
-----------------------|-----------------------|-----------------------|
-----------------------|--0----0---------------|-----------------------|
------------0--0-0-----|------------2--4-4-----|------------0--0-0-----|
--3----3---------------|-----------------------|--3----3---------------|
-----------------------|-----------------------|-----------------------|

[ Tab from: http://www.guitartabs.cc/tabs/n/noam_kaniel/heathcliff_tab.html ]
                                                               
--------------------|--------------------|--------------------|
--------------------|-----------0--------|--------------------|
--0--------2--------|--0--------0--------|--0--------2--------|
--2--------0--------|--2-----------------|--2--------0--------|
--------------------|--------------------|--------------------|
--------------------|--------------------|--------------------|


                                                                              
--------------------|------------------|------------------|------------------|
--------------------|------------------|------------------|------------------|
--0--------2--------|------------------|------------------|------------------|
--2--------4--------|------------------|------------------|------------------|
--------------------|------------------|------------------|------------------|
--------------------|------------------|------------------|------------------|


                                                                   
------------------|--3----3----0--0-0-----|-----------------------|
------------------|-----------------------|--1----1----3--3-3-----|
------------------|-----------------------|-----------------------|
------------------|-----------------------|-----------------------|
------------------|-----------------------|-----------------------|
------------------|-----------------------|-----------------------|


                                                                            
------------------|------------------|------------------|------------------|
------------------|------------------|------------------|------------------|
------------------|------------------|------------------|------------------|
------------------|------------------|------------------|------------------|
------------------|------------------|------------------|------------------|
------------------|------------------|------------------|------------------|


                                                                            
------------------|------------------|------------------|------------------|
------------------|------------------|------------------|------------------|
------------------|------------------|------------------|------------------|
------------------|------------------|------------------|------------------|
------------------|------------------|------------------|------------------|
------------------|------------------|------------------|------------------|


                                                                            
------------------|------------------|------------------|------------------|
------------------|------------------|------------------|------------------|
------------------|------------------|------------------|------------------|
------------------|------------------|------------------|------------------|
------------------|------------------|------------------|------------------|
------------------|------------------|------------------|------------------|


                                                                              
--0--0--0--0-2----------|--0--0--0--0-3----2--0-----|--0--0--0--0-2----------|
------------------------|------------------------3--|------------------------|
--0------------2--------|--0------------2-----------|--0------------2--------|
--2------------0--------|--2------------4-----------|--2------------0--------|
------------------------|---------------------------|------------------------|
------------------------|---------------------------|------------------------|


                                                                             
-------0----------0-2--0----|--3----3----0--0-0-----|-----------------------|
--1--3----3-1--3---------3--|-----------------------|--1----1----3--3-3-----|
--0------------2------------|--0----0---------------|-----------------------|
--2------------4------------|------------2--2-2-----|------------0--0-0-----|
----------------------------|-----------------------|--3----3---------------|
----------------------------|-----------------------|-----------------------|


                                                                        
--3----3----0--0-0-----|-----------------------|--5----5----2--2-2-----|
-----------------------|--1----1----3--3-3-----|-----------------------|
--0----0---------------|-----------------------|-----------------------|
------------2--2-2-----|------------0--0-0-----|--7----7----4--4-4-----|
-----------------------|--3----3---------------|-----------------------|
-----------------------|-----------------------|-----------------------|


                                                                     
------------0--0-0-----|--5----5----2--2-2-----|-----------0--------|
--3----3---------------|-----------------------|--3-----------------|
-----------------------|-----------------------|--------------------|
--0----0----2--2-2-----|--7----7----4--4-4-----|--------------------|
-----------------------|-----------------------|--0--------4--------|
-----------------------|-----------------------|--------------------|


                         
--5----------------|---||
--5----------------|---||
-------------------|---||
--7----------------|---||
-------------------|---||
-------------------|---||


------------------------------------------------------------------------------------------------

              Heathcliff And The Catillac Cats · Les Entrechats                 


Electric Guitar 2
                                                                               
E||------------------|------------------|------------------|------------------|
B||------------------|------------------|------------------|------------------|
G||------------------|------------------|------------------|------------------|
D||------------------|------------------|------------------|------------------|
A||------------------|------------------|------------------|------------------|
E||------------------|------------------|------------------|------------------|


                                                                            
------------------|------------------|------------------|------------------|
------------------|------------------|------------------|------------------|
------------------|------------------|------------------|------------------|
------------------|------------------|------------------|------------------|
------------------|------------------|------------------|------------------|
------------------|------------------|------------------|------------------|


                                                                            
------------------|------------------|------------------|------------------|
------------------|------------------|------------------|------------------|
------------------|------------------|------------------|------------------|
------------------|------------------|------------------|------------------|
------------------|------------------|------------------|------------------|
------------------|------------------|------------------|------------------|


                                                                            
------------------|------------------|------------------|------------------|
------------------|------------------|------------------|------------------|
------------------|------------------|------------------|------------------|
------------------|------------------|------------------|------------------|
------------------|------------------|------------------|------------------|
------------------|------------------|------------------|------------------|


                                                                            
------------------|------------------|------------------|------------------|
------------------|------------------|------------------|------------------|
------------------|------------------|------------------|------------------|
------------------|------------------|------------------|------------------|
------------------|------------------|------------------|------------------|
------------------|------------------|------------------|------------------|


                                                                                
--3--3--3-----0-0--2---0--|----------------0--------|--3--3--3-----0-0--2---0--|
-----------3--------------|--1--1--1--1--3----3-----|-----------3--------------|
--------------------------|-------------------------|--------------------------|
--------------------------|-------------------------|--------------------------|
--------------------------|-------------------------|--------------------------|
--------------------------|-------------------------|--------------------------|


                                                                             
----------------0--------|--0--0--0--0-2---------|--0--0--0--0-3---2--0-----|
--1--1--1--1--3----3-----|--3--------------------|--3--------------------3--|
-------------------------|-----------------------|--------------------------|
-------------------------|-----------------------|--------------------------|
-------------------------|-----------------------|--------------------------|
-------------------------|-----------------------|--------------------------|


                                                                        
--0--0--0--0-2---------|-------0----------0-2--0----|------------------|
--3--------------------|--1--3----3-1--3---------3--|------------------|
-----------------------|----------------------------|------------------|
-----------------------|----------------------------|------------------|
-----------------------|----------------------------|------------------|
-----------------------|----------------------------|------------------|


                                                                            
------------------|------------------|------------------|------------------|
------------------|------------------|------------------|------------------|
------------------|------------------|------------------|------------------|
------------------|------------------|------------------|------------------|
------------------|------------------|------------------|------------------|
------------------|------------------|------------------|------------------|


                                                                            
------------------|------------------|------------------|------------------|
------------------|------------------|------------------|------------------|
------------------|------------------|------------------|------------------|
------------------|------------------|------------------|------------------|
------------------|------------------|------------------|------------------|
------------------|------------------|------------------|------------------|


                                                                            
------------------|------------------|------------------|------------------|
------------------|------------------|------------------|------------------|
------------------|------------------|------------------|------------------|
------------------|------------------|------------------|------------------|
------------------|------------------|------------------|------------------|
------------------|------------------|------------------|------------------|


                                                                            
------------------|------------------|------------------|------------------|
------------------|------------------|------------------|------------------|
------------------|------------------|------------------|------------------|
------------------|------------------|------------------|------------------|
------------------|------------------|------------------|------------------|
------------------|------------------|------------------|------------------|


                                                                      
------------------|--0--0--0--0-2---------|--0--0--0--0-3---2--0-----|
------------------|--3--------------------|--3--------------------3--|
------------------|-----------------------|--------------------------|
------------------|-----------------------|--------------------------|
------------------|-----------------------|--------------------------|
------------------|-----------------------|--------------------------|


                                                                             
--0--0--0--0-2---------|-------0----------0-2--0----|--3------2--0----2--3--|
--3--------------------|--1--3----3-1--3---------3--|-----------------------|
-----------------------|----------------------------|-----------------------|
-----------------------|----------------------------|-----------------------|
-----------------------|----------------------------|-----------------------|
-----------------------|----------------------------|-----------------------|


                                                                       
---------0-------0--2--|--3------2--0----2--3--|---------0------------|
--1---------3----------|-----------------------|--1---------3----4----|
-----------------------|-----------------------|----------------------|
-----------------------|-----------------------|----------------------|
-----------------------|-----------------------|----------------------|
-----------------------|-----------------------|----------------------|


                                                         
------------------|------------------|------------------|
------------------|------------------|------------------|
------------------|------------------|------------------|
------------------|------------------|------------------|
------------------|------------------|------------------|
------------------|------------------|------------------|


                                                                    
----------------------------|------------------|------------------||
-----0-2--0----0--2-3--2-0--|------------------|------------------||
--2---------2---------------|------------------|------------------||
----------------------------|------------------|------------------||
----------------------------|------------------|------------------||
----------------------------|------------------|------------------||


----------------------------------------------------------------------------------------------

              Heathcliff And The Catillac Cats · Les Entrechats                 


Bass Guitar
                                                                            
G||------------------|------------------|--0-0-0-0-0-0-0-0-----------------|
D||------------------|------------------|------------------2-2-2-2-2-2-2-2-|
A||------------------|------------------|----------------------------------|
E||------------------|------------------|----------------------------------|


                                                                      
--5-5-5-5-5-5-5-5-7-7-7-7-7-7-7-7-|--0-0-0-0-0-0-0-0-----------------|
----------------------------------|------------------2-2-2-2-2-2-2-2-|
----------------------------------|----------------------------------|
----------------------------------|----------------------------------|


                                                                      
--5-5-5-5-5-5-5-5-7-7-7-7-7-7-7-7-|--0-0-0-0-0-0-0-0-----------------|
----------------------------------|------------------2-2-2-2-2-2-2-2-|
----------------------------------|----------------------------------|
----------------------------------|----------------------------------|


                                                                      
--5-5-5-5-5-5-5-5-7-7-7-7-7-7-7-7-|--0-0-0-0-0-0-0-0-----------------|
----------------------------------|------------------2-2-2-2-2-2-2-2-|
----------------------------------|----------------------------------|
----------------------------------|----------------------------------|


                                                                      
--5-5-5-5-5-5-5-5-7-7-7-7-7-7-7-7-|--0-0-0-0-0-0-0-0-----------------|
----------------------------------|------------------2-2-2-2-2-2-2-2-|
----------------------------------|----------------------------------|
----------------------------------|----------------------------------|


                                                                      
--5-5-5-5-5-5-5-5-7-7-7-7-7-7-7-7-|--5-5-5-5-5-5-5-5-7-7-7-7-7-7-7-7-|
----------------------------------|----------------------------------|
----------------------------------|----------------------------------|
----------------------------------|----------------------------------|


                                                                      
--5-5-5-5-5-5-5-5-7-7-7-7-7-7-7-7-|--5-5-5-5-5-5-5-5-7-7-7-7-7-7-7-7-|
----------------------------------|----------------------------------|
----------------------------------|----------------------------------|
----------------------------------|----------------------------------|


                                                                      
--5-5-5-5-5-5-5-5-7-7-7-7-7-7-7-7-|--0-0-0-0-0-0-0-0-----------------|
----------------------------------|------------------2-2-2-2-2-2-2-2-|
----------------------------------|----------------------------------|
----------------------------------|----------------------------------|


                                                                      
--5-5-5-5-5-5-5-5-7-7-7-7-7-7-7-7-|--0-0-0-0-0-0-0-0-----------------|
----------------------------------|------------------2-2-2-2-2-2-2-2-|
----------------------------------|----------------------------------|
----------------------------------|----------------------------------|


                                                                             
--5-5-5-5-5-5-5-5-7-7-7-7-7-7-7-7-|--------------------|--------------------|
----------------------------------|--------------------|-----------0--------|
----------------------------------|--------------------|--3-----------------|
----------------------------------|--3--------3--------|--------------------|


                                                               
--------------------|--------------------|--------------------|
--------------------|-----------0--------|--2--------4--------|
--------------------|--3-----------------|--------------------|
--3--------3--------|--------------------|--------------------|


                                                               
-----------0--------|--------------------|--------------------|
--2-----------------|--2--------4--------|--2--------4--------|
--------------------|--------------------|--------------------|
--------------------|--------------------|--------------------|


                                                                      
--0-0-0-0-0-0-0-0-----------------|--5-5-5-5-5-5-5-5-7-7-7-7-7-7-7-7-|
------------------2-2-2-2-2-2-2-2-|----------------------------------|
----------------------------------|----------------------------------|
----------------------------------|----------------------------------|


                                                                      
--0-0-0-0-0-0-0-0-----------------|--5-5-5-5-5-5-5-5-7-7-7-7-7-7-7-7-|
------------------2-2-2-2-2-2-2-2-|----------------------------------|
----------------------------------|----------------------------------|
----------------------------------|----------------------------------|


                                                                      
--0-0-0-0-0-0-0-0-----------------|--5-5-5-5-5-5-5-5-7-7-7-7-7-7-7-7-|
------------------2-2-2-2-2-2-2-2-|----------------------------------|
----------------------------------|----------------------------------|
----------------------------------|----------------------------------|


                                                                      
--0-0-0-0-0-0-0-0-----------------|--5-5-5-5-5-5-5-5-7-7-7-7-7-7-7-7-|
------------------2-2-2-2-2-2-2-2-|----------------------------------|
----------------------------------|----------------------------------|
----------------------------------|----------------------------------|


                                                                      
--0-0-0-0-0-0-0-0-----------------|--5-5-5-5-5-5-5-5-7-7-7-7-7-7-7-7-|
------------------2-2-2-2-2-2-2-2-|----------------------------------|
----------------------------------|----------------------------------|
----------------------------------|----------------------------------|


                                                                      
--5-5-5-5-5-5-5-5-7-7-7-7-7-7-7-7-|--5-5-5-5-5-5-5-5-7-7-7-7-7-7-7-7-|
----------------------------------|----------------------------------|
----------------------------------|----------------------------------|
----------------------------------|----------------------------------|


                                                                      
--5-5-5-5-5-5-5-5-7-7-7-7-7-7-7-7-|--5-5-5-5-5-5-5-5-7-7-7-7-7-7-7-7-|
----------------------------------|----------------------------------|
----------------------------------|----------------------------------|
----------------------------------|----------------------------------|


                                                                      
--0-0-0-0-0-0-0-0-----------------|--5-5-5-5-5-5-5-5-7-7-7-7-7-7-7-7-|
------------------2-2-2-2-2-2-2-2-|----------------------------------|
----------------------------------|----------------------------------|
----------------------------------|----------------------------------|


                                                                      
--0-0-0-0-0-0-0-0-----------------|--5-5-5-5-5-5-5-5-7-7-7-7-7-7-7-7-|
------------------2-2-2-2-2-2-2-2-|----------------------------------|
----------------------------------|----------------------------------|
----------------------------------|----------------------------------|


                                                               
--------------------|-----------0--------|--------------------|
-----------4--------|--2-----------------|--2--------4--------|
--7-----------------|-----------0--------|--------------------|
--0--------2--------|--0-----------------|--0--------2--------|


                                                        
--------------------|--0-0-0-0-0-0-0-0-----------------|
--2--------4--------|------------------2-2-2-2-2-2-2-2-|
--------------------|----------------------------------|
--0--------2--------|----------------------------------|


                                                                      
--5-5-5-5-5-5-5-5-7-7-7-7-7-7-7-7-|--0-0-0-0-0-0-0-0-----------------|
----------------------------------|------------------2-2-2-2-2-2-2-2-|
----------------------------------|----------------------------------|
----------------------------------|----------------------------------|


                                                                      
--5-5-5-5-5-5-5-5-7-7-7-7-7-8-8-8-|--------------------------1-1-1-1-|
----------------------------------|--7-7-7-7-7-7-7-7-4-4-4-4---------|
----------------------------------|----------------------------------|
----------------------------------|----------------------------------|


                                                                      
--7-7-7-7-7-7-7-7-9-9-9-9-9-9-9-9-|----------------------------------|
----------------------------------|--7-7-7-7-7-7-7-7-7-7-7-7-7-7-7-7-|
----------------------------------|----------------------------------|
----------------------------------|----------------------------------|


                                                            
------------------|--14----------------|------------------||
------------------|--------------------|------------------||
------------------|--16----------------|------------------||
------------------|--------------------|------------------||


Comments