No Way Drive - Walk Away Chords & Tabs

 

Walk Away Chords & Tabs

No Way Drive Chords & Tabs

Version: 1 Type: Tab 0 ratings
1 star 2 stars 3 stars 4 stars 5 stars
comments

Walk Away Tab

   
ARTIST: No Way Drive
SONG: Walk Away
INSTRUMENT: Guitar #1 (John's Part)
TABBED BY: John Marshall
DATE TABBED: 5/15/02
DEDICATED TO: Bryan (here you go!) / Dago (let's see you do one buddy!) / Hillary (happy two months!)
--------------------------------
:    Let Ring
pm   Palm Mute (picking hand)
x    Muted (fretting hand) 
--------------------------------

*INTRO PT. A* (All distorted guitar)

E|----------------------------------
B|----------------------------------
G|-7:--------------7:------7:-------
D|-7:--------------7:------7:-------
A|-5:--------------5:------5:-------
E|----------------------------------

E|-----------------------------------------------------------------
B|-----------------------------------------------------------------
G|-----7-----7---9-----9-------9-------11----11--7-----7-------7---
D|-7-7---7-7---7---7-7---7-7-7---7-9-9---9-9---9---5-5---5-5-5---5-
A|-----------------------------------------------------------------
E|-----------------------------------------------------------------

E|-----------------------------------------------------------------
B|-----------------------------------------------------------------
G|-----7-----7---6-----6-------6-------7-----7---7-----7-------7---
D|-7-7---7-7---7---7-7---7-7-7---7-5-5---5-5---5---5-5---5-5-5---7-
A|-----------------------------------------------------------------
E|-----------------------------------------------------------------

E|-----------------------------------------------------------------
B|-----------------------------------------------------------------
G|-----7-----7---9-----9-------9-------11----11--7-----7-------7---
D|-7-7---7-7---7---7-7---7-7-7---7-9-9---9-9---9---5-5---5-5-5---5-
A|-----------------------------------------------------------------
E|-----------------------------------------------------------------

E|------------------------------------
B|------------------------------------
G|-----7-----7---6-----6-------6---4:-
D|-7-7---7-7---7---7-7---7-7-7---7-4:-
A|---------------------------------2:-
E|------------------------------------

*INTRO PT. B*

E|----------------------------------------------------------------- 
B|-----------------------------------------------------------------  
G|-4-4-x-4-4-4-x-4-4-4-x-4-4-4-7---4-4-x-4-4-4-x-4-4-4-x-4-4-4-----  
D|-4-4-x-4-4-4-x-4-4-4-x-4-4-4-5---4-4-x-4-4-4-x-4-4-4-x-4-4-4-5---  x2
A|-2-2-x-2-2-2-x-2-2-2-x-2-2-2-5---2-2-x-2-2-2-x-2-2-2-x-2-2-2-5---  
E|-------------------------------------------------------------3--- 

E|-------------------------------
B|-------------------------------
G|-------------------------------
D|-7:----------------------------
A|-7:----------------------------
E|-5:----------------------------

*VERSE*

  "You wanna stay but you gotta go or you gotta know how I feel...."
E|-----------------------------------------------------------------
B|-----------------------------------------------------------------
G|-----------------------------------------------------------------
D|-4-4-4-x-x-4-x-4-4-4-4-x-x-4-x-4-4-4-4-x-x-4-x-4-5-5-5-5-5-5-5-5-  x2
A|-2-2-2-x-x-2-x-2-2-2-2-x-x-2-x-2-2-2-2-x-x-2-x-2-5-5-5-5-5-5-5-5-
E|-----------------------------------------------------------------
   pm.............................................

*PRECHORUS*

  "Would you walk away"
E|-----------------------------------------------------------------
B|-----------------------------------------------------------------
G|---------------------------------7---7---7-7-7-7---7-7---7-7-7-7-
D|-7---7-7-7-7-7-7-5---5-5-5-5-5-5-7---7---7-7-7-7---7-7---7-7-7-7- 
A|-7---7-7-7-7-7-7-5---5-5-5-5-5-5-5---5---5-5-5-5---5-5---5-5-5-5-
E|-5---5-5-5-5-5-5-3---3-3-3-3-3-3---------------------------------
  "If I still feel the same"
E|-----------------------------------------------------------------
B|-----------------------------------------------------------------
G|-----------------------------------------------------------------
D|-7---7-7-7-7-7-7-5---5-5-5-5-5-5-7:------------------------------ 
A|-7---7-7-7-7-7-7-5---5-5-5-5-5-5-7:------------------------------
E|-5---5-5-5-5-5-5-3---3-3-3-3-3-3-5:------------------------------

*CHORUS*
[ Tab from: http://www.guitartabs.cc/tabs/n/no_way_drive/walk_away_tab.html ]
  "Stop what are you looking at what the fuck is going through your head"
E|-----------------------------------------------------------------
B|-----------------------------------------------------------------
G|-7---7-7-7-7-7---------------------------------------------------
D|-7---7-7-7-7-7-7-7-7-7-7---7-7-7-9-9-9-9---9-9-5-5---5-5-5---5-5-
A|-5---5-5-5-5-5-7-7-7-7-7---7-7-7-9-9-9-9---9-9-5-5---5-5-5---5-5-
E|---------------5-5-5-5-5---5-5-5-7-7-7-7---7-7-3-3---3-3-3---3-3-
  "I know I'm wrong I'm always wrong"
E|-----------------------------------------------------------------
B|-----------------------------------------------------------------
G|-7---7-7-7-7-7---------------------------------------------------
D|-7---7-7-7-7-7-7-7-7-7-7---7-7-7-5-5-x-5-5-5-x-5-5-5-x-5-5-5-5-5-
A|-5---5-5-5-5-5-7-7-7-7-7---7-7-7-5-5-x-5-5-5-x-5-5-5-x-5-5-5-5-5-
E|---------------5-5-5-5-5---5-5-5-3-3-x-3-3-3-x-3-3-3-x-3-3-3-3-3-
  "Stop what are you looking at what the fuck is going through your head"
E|-----------------------------------------------------------------
B|-----------------------------------------------------------------
G|-7---7-7-7-7-7---------------------------------------------------
D|-7---7-7-7-7-7-7-7-7-7-7---7-7-7-9-9-9-9---9-9-5-5---5-5-5---5-5-
A|-5---5-5-5-5-5-7-7-7-7-7---7-7-7-9-9-9-9---9-9-5-5---5-5-5---5-5-
E|---------------5-5-5-5-5---5-5-5-7-7-7-7---7-7-3-3---3-3-3---3-3-
  "I'm always wrong"
E|---------------------------------
B|---------------------------------
G|-7---7-7-7-7-7-------------------
D|-7---7-7-7-7-7-7-7-7-7-7---7-7-7-
A|-5---5-5-5-5-5-7-7-7-7-7---7-7-7-
E|---------------5-5-5-5-5---5-5-5-

-INTRO PT. B-

-VERSE-

*PRECHORUS*

  "Would you walk away..."
E|-----------------------------------------------------------------
B|-----------------------------------------------------------------
G|---------------------------------7---7---7-7-7-7---7-7---7-7-7-7-
D|-7---7-7-7-7-7-7-5---5-5-5-5-5-5-7---7---7-7-7-7---7-7---7-7-7-7- 
A|-7---7-7-7-7-7-7-5---5-5-5-5-5-5-5---5---5-5-5-5---5-5---5-5-5-5- x3
E|-5---5-5-5-5-5-5-3---3-3-3-3-3-3---------------------------------
  "If I still feel the same"
E|-----------------------------------------------------------------
B|-----------------------------------------------------------------
G|-----------------------------------------------------------------
D|-7---7-7-7-7-7-7-5---5-5-5-5-5-5-7:------------------------------ 
A|-7---7-7-7-7-7-7-5---5-5-5-5-5-5-7:------------------------------
E|-5---5-5-5-5-5-5-3---3-3-3-3-3-3-5:------------------------------

-CHORUS-

*BRIDGE*

  "Bring me down..."
E|-----------------------------------------------------------------
B|-----------------------------------------------------------------
G|-4-4-4-4-4-4-4-4-4-4-4-4-4-4-4-4---------------------------------
D|-4-4-4-4-4-4-4-4-4-4-4-4-4-4-4-4-5-5-x-5-5-5-x-5-5-5-x-5-5-5-5-5-  x3
A|-2-2-2-2-2-2-2-2-2-2-2-2-2-2-2-2-5-5-x-5-5-5-x-5-5-5-x-5-5-5-5-5-  
E|---------------------------------3-3-x-3-3-3-x-3-3-3-x-3-3-3-3-3-
  "I need you to see"
E|-----------------------------------------------------------------
B|-----------------------------------------------------------------
G|-4-4-4-4-4-4-4-4-4-4-4-4-4-4-4-4---------------------------------
D|-4-4-4-4-4-4-4-4-4-4-4-4-4-4-4-4-7---7---7-7-7-7---7-7-7-7-7-7-7-
A|-2-2-2-2-2-2-2-2-2-2-2-2-2-2-2-2-7---7---7-7-7-7---7-7-7-7-7-7-7-  
E|---------------------------------5---5---5-5-5-5---5-5-5-5-5-5-5-

*INTERLUDE* (1=11)

E|-----------------------------------------------------------------
B|-7---7---7-7-7-9---9-9---9-9-9-9-1---1---1-1-1-7---7-7---7-7-7-7-
G|-7---7---7-7-7-7---7-7---7-7-7-7-9---9---9-9-9-5---5-5---5-5-5-5-
D|-----------------------------------------------------------------
A|-----------------------------------------------------------------
E|-----------------------------------------------------------------

E|-----------------------------------------------------------------
B|-----------------------------------------------------------------
G|-7---7---7-7-7-6---6-6---6-6-6-6-7---7---7-7-7-7---7-7---7-7-7-7-
D|-7---7---7-7-7-7---7-7---7-7-7-7-5---5---5-5-5-5---5-5---5-5-5-5-
A|-----------------------------------------------------------------
E|-----------------------------------------------------------------

E|-----------------------------------------------------------------
B|-7---7---7-7-7-9---9-9---9-9-9-9-1---1---1-1-1-7---7-7---7-7-7-7-
G|-7---7---7-7-7-7---7-7---7-7-7-7-9---9---9-9-9-5---5-5---5-5-5-5-
D|-----------------------------------------------------------------
A|-----------------------------------------------------------------
E|-----------------------------------------------------------------

E|-----------------------------------------------------------------
B|-----------------------------------------------------------------
G|-7---7---7-7-7-6---6-6---6-6-6-6-4---4-4-4-4-4-4-4-4-4-4-4-4-4-4-
D|-7---7---7-7-7-7---7-7---7-7-7-7-4---4-4-4-4-4-4-4-4-4-4-4-4-4-4-
A|---------------------------------2---2-2-2-2-2-2-2-2-2-2-2-2-2-2-
E|-----------------------------------------------------------------

*CHORUS/OUTRO*

  "Would you walk away if I still wanna stay"
E|-----------------------------------------------------------------
B|-----------------------------------------------------------------
G|-7---7---7-7-7---------------------------------------------------
D|-7---7---7-7-7-7---7-7---7-7-7-7-9---9---9-9-9-5---5-5---5-5-5-5-
A|-5---5---5-5-5-7---7-7---7-7-7-7-9---9---9-9-9-5---5-5---5-5-5-5-
E|---------------5---5-5---5-5-5-5-7---7---7-7-7-3---3-3---3-3-3-3-
  "Cause all I see is you"
E|-----------------------------------------------------------------
B|-----------------------------------------------------------------
G|-7---7-7-7-7-7---------------------------------------------------
D|-7---7-7-7-7-7-7---7-7-7-7-7-7-7-5---5---5-5-5-5---5-5-5-5-5-5-5-
A|-5---5-5-5-5-5-7---7-7-7-7-7-7-7-5---5---5-5-5-5---5-5-5-5-5-5-5-
E|---------------5---5-5-5-5-5-5-5-3---3---3-3-3-3---3-3-3-3-3-3-3-
  "Would you walk away if I still feel the same"
E|-----------------------------------------------------------------
B|-----------------------------------------------------------------
G|-7---7---7-7-7---------------------------------------------------
D|-7---7---7-7-7-7---7-7---7-7-7-7-9---9---9-9-9-5---5-5---5-5-5-5-
A|-5---5---5-5-5-7---7-7---7-7-7-7-9---9---9-9-9-5---5-5---5-5-5-5-
E|---------------5---5-5---5-5-5-5-7---7---7-7-7-3---3-3---3-3-3-3-
  "Cause all I want is you"
E|-----------------------------------------------------------------
B|-----------------------------------------------------------------
G|-7---7-7-7-7-7-------------------4:------------------------------
D|-7---7-7-7-7-7-7---7-7-7-7-7-7-7-4:------------------------------
A|-5---5-5-5-5-5-7---7-7-7-7-7-7-7-2:------------------------------
E|---------------5---5-5-5-5-5-5-5---------------------------------


--------------------------------
JOHN'S EXPLANATION: =P

Hope you all enjoy my tab, be on the lookout for Dago's. BASICALLY: 
the second guitar doubles the first throughout the song until the
end of the BRIDGE. During the INTERLUDE the second guitar plays the first 
guitar's CHORUS/OUTRO part, and plays a little solo thingy over the 
CHORUS/OUTRO. We're basically just waiting on Dago's tab of that part.
--------------------------------


Comments