No Way Drive - No Way Drive Chords & Tabs

 

No Way Drive Chords & Tabs

No Way Drive Chords & Tabs

Version: 1 Type: Tab 0 ratings
1 star 2 stars 3 stars 4 stars 5 stars
comments

No Way Drive Tab

   
ARTIST: No Way Drive
SONG: No Way Drive
INSTRUMENT: Guitar #1 (John's Part)
TABBED BY: John Marshall
DATE TABBED: 5/16/02
DEDICATED TO: Cole (for sitting through two tabs worth of typing) 5hrs?
--------------------------------
:    Let Ring
cln  Clean Channel
x    Muted (fretting hand)
=    Jam Ending
--------------------------------

*INTRO PT. A* (All distorted unless otherwise noted)

E|-----------------------------------------------------------------
B|-----------------------------------------------------------------
G|---------------7---7-7---7-7-7-7-5---5---5-5-5-5---5-5---5-5-5-5-
D|-5---5---5-5-5-7---7-7---7-7-7-7-5---5---5-5-5-5---5-5---5-5-5-5- 
A|-5---5---5-5-5-5---5-5---5-5-5-5-3---3---3-3-3-3---3-3---3-3-3-3-
E|-3---3---3-3-3---------------------------------------------------

E|-----------------------------------------------------------------
B|-----------------------------------------------------------------
G|---------------7---7-7---7-7-7-7-5---5-5-5-5-5-5-5-5-5-5-5-5-5-5-
D|-5---5---5-5-5-7---7-7---7-7-7-7-5---5-5-5-5-5-5-5-5-5-5-5-5-5-5- 
A|-5---5---5-5-5-5---5-5---5-5-5-5-3---3-3-3-3-3-3-3-3-3-3-3-3-3-3-
E|-3---3---3-3-3---------------------------------------------------

*INTRO PT. B* (1.5 Spaced Tabbing)

E|-------------------------------------------------
B|-------------------------------------------------
G|-12----12----12-12-12-11----11-11----11-11-11-11-
D|------------------------------------------------- 
A|-10----10----10-10-10--9-----9--9-----9--9--9--9-
E|-------------------------------------------------

E|-------------------------------------------------
B|-------------------------------------------------
G|-12----12----12-12-12-12----12-12----12-12-12-12-
D|------------------------------------------------- 
A|-10----10----10-10-10-10----10-10----10-10-10-10-
E|-------------------------------------------------

E|-------------------------------------------------
B|-------------------------------------------------
G|-12----12----12-12-12-11----11-11----11-11-11-11-
D|------------------------------------------------- 
A|-10----10----10-10-10--9-----9--9-----9--9--9--9-
E|-------------------------------------------------

E|-------------------------------------------------
B|-------------------------------------------------
G|-15-15-15-15-15-15-15-15-15-15-15-15-15-15-15-15-
D|------------------------------------------------- 
A|-13-13-13-13-13-13-13-13-13-13-13-13-13-13-13-13-
E|-------------------------------------------------

*VERSE*

  "Lauren was her name..." 
E|-----------------------------------------------------------------
B|-----------------------------------------------------------------
G|---------------7---7-7-7-7-7-7-7-5---5-5-5-5-5-5-5-5-5-5-5-5-5-5-
D|-5---5-5-5-5-5-7---7-7-7-7-7-7-7-5---5-5-5-5-5-5-5-5-5-5-5-5-5-5-  x3
A|-5---5-5-5-5-5-5---5-5-5-5-5-5-5-3---3-3-3-3-3-3-3-3-3-5-3-3-3-3-
E|-3---3-3-3-3-3---------------------------------------------------

  "...a reason not to change"
E|-----------------------------------------------------------------
B|-----------------------------------------------------------------
G|---------------7---7-7-7-7-7-7-7-5---5---5-5-5-5---5-5---5-5-5-5-
D|-5---5-5-5-5-5-7---7-7-7-7-7-7-7-5---5---5-5-5-5---5-5---5-5-5-5- 
A|-5---5-5-5-5-5-5---5-5-5-5-5-5-5-3---3---3-3-3-3---3-3---3-3-3-3-
E|-3---3-3-3-3-3---------------------------------------------------

-INTRO PT. A-

-INTRO PT. B-

-VERSE-

*PRECHORUS PT. A*
[ Tab from: http://www.guitartabs.cc/tabs/n/no_way_drive/no_way_drive_tab.html ]
  "...forget the old feelings and songs we used to sing..."
E|-----------------------------------------------------------------
B|-----------------------------------------------------------------
G|-7:------------------------------5:------------------------------
D|-7:------------------------------5:------------------------------
A|-5:------------------------------3:------------------------------
E|-----------------------------------------------------------------

*CHORUS PT. A*

  "last song that I'll ever write about..."
E|---------------------------------
B|---------------------------------
G|-9---9---9-9-9-7---7-7---7-7-7-7-
D|-9---9---9-9-9-7---7-7---7-7-7-7-
A|-7---7---7-7-7-5---5-5---5-5-5-5-
E|---------------------------------

-INTRO PT. A-

-INTRO PT. B-

-VERSE-

-PRECHORUS PT. A-

-CHORUS PT. A-

*CHORUS PT. B*

  "you... Because we're"
E|------------------
B|------------------
G|-5:---------------
D|-5:---------------
A|-3:---------------
E|------------------

*BRIDGE* (clean guitar, play similie 4 times, end on C)

  "...through and that's okay..."
E|--------------------------------------|--------------------------
B|--------------------------------------|--------------------------
G|---------------------7p-----7p-----5--|------------5-5-5-5-5-5-5-
D|-5------------x------7p-----7p-----5--|------------5-5-5-5-5-5-5- x4
A|-5------------x------5p-----5p-----3--|------------3---3-3-3---3-
E|-3------------x-----------------------|--------------------------

-CHORUS PT. A-

-INTRO PT. A- (4 TIMES)

-PRECHORUS PT. A-

*PRECHORUS PT. B*

  "...forget the old feelings and songs we used to sing..."
E|-----------------------------------------------------------------
B|-----------------------------------------------------------------
G|-7---------------7---7-7---7-7-7-5---5---5-5-5-5---5-5---5-5-5-5-
D|-7---------------7---7-7---7-7-7-5---5---5-5-5-5---5-5---5-5-5-5-
A|-5---------------5---5-5---5-5-5-3---3---3-3-3-3---3-3---3-3-3-3-
E|-----------------------------------------------------------------

E|-----------------------------------------------------------------
B|-----------------------------------------------------------------
G|-7---7---7-7-7-7---7-7---7-7-7-7-5---5---5-5-5-5---5-5---5-5-5-5-
D|-7---7---7-7-7-7---7-7---7-7-7-7-5---5---5-5-5-5---5-5---5-5-5-5-
A|-5---5---5-5-5-5---5-5---5-5-5-5-3---3---3-3-3-3---3-3---3-3-3-3-
E|-----------------------------------------------------------------

-CHORUS PT. A-

-CHORUS PT. B-

*OUTRO* (Orchestrated Ending)

  "Because we're..."
              E|------
              B|------
              G|------
              D|-5:===>
              A|-5:===>
              E|-3:===>



--------------------------------
JOHN'S EXPLANATION: =P

Interesting song to tab that's for sure. Everything should be 
perfectly correct besides the clean bridge. It was just a bit tricky
for me to tab out. Go find a recording or something or come to a show
and watch. :) The second guitar part is exactly the same as the
first with the following exceptions: (1) During all INTRO PT. B's
the second guitar keeps playing INTRO PT. A. (2) The second guitar
part for the bridge consists of a single note harmonic played on the 
last chord of the bridge. (3) In the INTRO PT. A after the bridge,
the second guitar solos over the latter 75% of it. :) 
(It is a nice solo isn't it. Let's see the tab Dago.) 
Enjoy!

P.S. I'd like to see Tim tab out this song.
--------------------------------
Comments