No Vacancy - Heal Me Im Heartsick Chords & Tabs

 

Heal Me Im Heartsick Chords & Tabs

No Vacancy Chords & Tabs

Version: 1 Type: Bass Tab 0 ratings
1 star 2 stars 3 stars 4 stars 5 stars
comments

Heal Me Im Heartsick Bass Tab

      No Vacancy - Heal Me
     (Soundtrack School of Rock)

No Vacancy - "Heal Me" - Bass Tab

common time(4/4)
standard tuning(EADG)
Tabbed by Bassmn (bassmn2004@yahoo.com)

INTRO/VERSE:

G |------------|----------|---------|----------------|
D |--3---------|---3------|--3------|-------------3--|
A |------------|----------|---------|----------5-----|
E |------------|----------|---------|-0--3--5--------|


Verse-1
G|------------|------------|------------|------------|--------------|
D|--3---------|--3---------|--3---------|-5-----3----|--------------|
A|------------|------------|------------|------------|--------------|
E|------------|------------|------------|------------|--------------|
     Heal, me I'm heartsick I'm hungry and i'm broken
   i'm haunted, and weeping. The blood of heaven flowing like a
G|------------|--------------------|-----------|------------|
D|------------|--------------------|-----------|------------|
A|------------|--------------------|-----------|------------|
E|--5------3--|--5-------------3---|------1----|------------|
  river tonite, tears i cant fight on my own

G|------------|------------|------------|------------|--------------|
D|--3---------|--3---------|--3---------|-5-----3----|--------------|
A|------------|------------|------------|------------|--------------|
E|------------|------------|------------|------------|--------------|
     i'm haunted,Heaving    i'm hung and barely breathing
    The drowning,Ocean - Snuff the sun in motion
      G|----------------|--------------------|
      D|----------------|--------------------|
      A|----------------|--------------------|
      E|--5----------3--|----5-----------3---|
There's a pill on my tongue, shot from a gun

     G|----------------|--------------------|-----|
     D|----------------|--------------------|-----|
     A|----------------|--------------------|-----|
     E|--5----------3--|---5---------3------|-1---|
     The bottles bottom, lonely as a star

Chorus
G|-----------|--------------|---------|-----------------|---------|
D|-----------|-5------------|---------|-----------------|---------|
A|-3---------|--------------|-5-------|-----------------|---------|
E|-----------|--------------|---------|-----5-----------|----3----|
   Heal me,    I'm heartsick,  hungry,  but I can survive on you

G|----------------|--------------|---------|
D|--------5-------|--------------|---------|
A|-3--------------|-5------------|---------|
E|----------------|--------5-----|--1------|
 Heal my heartsick,hungry cries            I'm heartsick!


Verse-2
[ Tab from: http://www.guitartabs.cc/tabs/n/no_vacancy/heal_me_im_heartsick_btab.html ]
G|------------|------------|------------|------------|----------------|
D|--3---------|--3---------|--3---------|--3---------|----------------|
A|------------|------------|------------|------------|----------------|
E|------------|------------|------------|------------|----------------|
     Father,      free me        mama,   woman feed me
   Child of       fury,       lost his way, but dont worry
G|------------|--------------------|-----------|------------|
D|------------|--------------------|-----------|------------|
A|------------|--------------------|-----------|------------|
E|--5------3--|--5-------------3---|------1----|------------|
  I wont stop til the dawn     I've been too long on the run

      G|----------------|--------------------|
      D|----------------|--------------------|
      A|----------------|--------------------|
      E|--5----------3--|----5-----------3---|
        I grow strong, and restles as a stone

   Chorus
G|-----------|--------------|---------|-----------------|---------|
D|-----------|-5------------|---------|-----------------|---------|
A|-3---------|--------------|-5-------|-----------------|---------|
E|-----------|--------------|---------|-----5-----------|----3----|
   Heal me,    I'm heartsick,  hungry,  but I can survive on you

G|----------------|--------------|---------|
D|--------5-------|--------------|---------|
A|-3--------------|-5------------|---------|
E|----------------|--------5-----|--1------|
 Heal my heartsick,hungry cries            I'm heartsick!


(Fill for solo)

G|------------|------------|------------|------------|---------------------|
D|------------|------------|------------|------------|----------5---3------|
A|------------|------------|------------|------------|------------------3--|
E|---5--------|-----5------|------5-----|----5-------|-----5---------------|

Verse-3

G|------------|------------|------------|------------|--------------|
D|--3---------|--3---------|--3---------|-5-----3----|--------------|
A|------------|------------|------------|------------|--------------|
E|------------|------------|------------|------------|--------------|
   Heal me,    I'm heartsick, I'm hungry and I'm broken
  I'm haunted   and weeping   The blood of heaven flowing like a

G|------------|--------------------|-----------|------------|
D|------------|--------------------|-----------|------------|
A|------------|--------------------|-----------|------------|
E|--5------3--|--5-------------3---|------1----|------------|
  river tonite, tears i cant fight on my own

Chorus-2 ( 2X )
G|-----------|--------------|---------|-----------------|---------|
D|-----------|-5------------|---------|-----------------|---------|
A|-3---------|--------------|-5-------|-----------------|---------|
E|-----------|--------------|---------|-----5-----------|----3----|
   Heal me,    I'm heartsick,  hungry,  but I can survive on you

G|----------------|--------------|---------|
D|--------5-------|--------------|---------|
A|-3--------------|-5------------|---------|
E|----------------|--------5-----|--1------|
 Heal my heartsick,hungry cries            I'm heartsick!


*Add some fills and phrasing to tie it all together*
Comments