No Vacancy - Fight Chords & Tabs

 

Fight Chords & Tabs

No Vacancy Chords & Tabs

Version: 3 Type: Tab 0 ratings
1 star 2 stars 3 stars 4 stars 5 stars
comments

Fight Tab

Song: FIGHT! ( including solo )
Band: NO VACANCY
From: School Of Rock ( the movies )
tabbed by: iinsanity101 ( iinsanity101@yahoo.com )

Ok, Its a little late to be tabbing It when the movies came out, but I saw no one else
had tabbed the solo correctly, so here you go and I hope you like It. If you have any
questions or comments, please email me, I would be more than happy to hear them.

/Quick change
()fast bend
s slide
p pull off
h hammer on
bu bend up
bd bend down

Intro ( Repeat through whole song )
Guitar 1:
E  --------------------------------------------------|
B  --------------------------------------------------|
G  --------------------------------------------------|
D  --5/7---7-7-7-7-7-7-7-7-7-7-7-7-7-7---------------|
A  --3/5---5-5-5-5-5-5-5-5-5-5-5-5-5-5---------------|
E  --------------------------------------------------|

Guitar 2:
E  --------------------------------------------------|
B  --3-----5-----6------5-----3----------------------|
G  --5(7)--7(9)--8(10)--7(9)--5(7)--5--2-------------|
D  --------------------------------------------------|
A  --------------------------------------------------|
E  --------------------------------------------------|
[ Tab from: http://www.guitartabs.cc/tabs/n/no_vacancy/fight_tab_ver_3.html ]
Then guitar 2 does this
E  --------------------------------------------------|
B  --------------------------------------------------|
G  --------------------------------------------------|
D  -----------3--------------------------------------|
A  --5--3--5-----5--3--5-----5-----------------------|
E  -----------------------3-----3--------------------|

Verse
E----------------------------------------------------|
B----------------------------------------------------|
G----------------------------------------------------|
D----13-----3-5---6-4-------------------------------|
A---5-----7------6--------9s55555555555555555--------|
E---3-----5------4--------7s33333333333333333--------|

Chorus
E  --------------------------------------------------|
B  --------------------------------------------------|
G  --------------------------------------------------|
D  -----------3--------------------------------------|
A  --5--3--5-----5--3--5-----5-----------------------|
E  -----------------------3-----3--------------------|

Solo
E-20~20P19H20P18H19P17H16S12H14S10H11P9~s15s9b-
B----------------------------------------------|
G----------------------------------------------|
D----------------------------------------------|
A----------------------------------------------|
E----------------------------------------------|

That is all I know of the solo so you will need to improvise the rest
Comments