No Use For A Name - Why Doesnt Anybody Like Me Chords & Tabs

 

Why Doesnt Anybody Like Me Chords & Tabs

No Use For A Name Chords & Tabs

Version: 1 Type: Tab 0 ratings
1 star 2 stars 3 stars 4 stars 5 stars
comments

Why Doesnt Anybody Like Me Tab

--------------------------------------------------------------------------------
                    NO USE FOR A NAME-Why Doesn't Anybody Like Me?
--------------------------------------------------------------------------------
TABBED BY:  Rob (freeskier20@hotmail.com)
the 1st song i ever heard by no use for a name.  but it's fairly easy.

*= let ring

Intro, Guitar 1
---------------------------------------------------
---------------------------------------------------
-8-8-8-9-8-6-4-4-4-4-------------------------------
-x-x-x-x-x-x-x-x-x-x-------------------------------
-6-6-6/7\6-4-2-2-2-2-------------------------------
---------------------------------------------------

Intro, Guitar 2
---------------------------------------------------
---------------------------------------------------
-11-11-11-13---13-9-8888---------------------------
-x--x--x--xx---x--x-xxxx---------------------------
-9--9-9/-11-\-9--7-6666---------------------------
---------------------------------------------------

Verse
---------------------------------------------------------
---------------------------------------------------------
44444444-------------------88888888-99999999-101010101010
44444444-44444444-66666666-88888888-99999999-101010101010
22222222-44444444-66666666-66666666-77777777-8-8-8-8-8-8-
---------22222222-44444444-------------------------------

----------------------------------------------------
----------------------------------------------------
1010111111------------13-13-13-13-13----------------
1010111111------------x--x--x--x--x-----------------
8-8-9-9-9---\\\\\\\\\-9--9--9--9--9-----------------
----------------------------------------------------
[ Tab from: http://www.guitartabs.cc/tabs/n/no_use_for_a_name/why_doesnt_anybody_like_me_tab.html ]
Pre-Chorus
---------------------------------------------------
---------------------------------------------------
---------------------------------------------------
-666-4444-22222222-44444444-66666666-77777777------
-666-4444-22222222-44444444-66666666-77777777------
-444-2222-00000000-22222222-44444444-55555555------

Chorus
---------------------------------------------------
---------------------------------------------------
444444444----------99999999-44444444---------------
444444444-44444444-99999999-44444444-44444444------
222222222-44444444-77777777-22222222-44444444------
----------22222222-------------------22222222------

---------------------------------------------------
---------------------------------------------------
-4444444444-33333333-22222222----------6666666666--
-4444444444-33333333-22222222-66666666-6666666666--
-2222222222-11111111-00000000-66666666-4444444444--
------------------------------44444444-------------

---------------------------------------------------
---------------------------------------------------
---------------------------------------------------
-4*-44---------------------------------------------
-4*-44---------------------------------------------
-2*-22---------------------------------------------

Solo, Guitar 1 (Use A Guitar Slide)
/14-\11-\7-/12-\11-\9-\7-/12-\11*------------------
---------------------------------------------------
---------------------------------------------------
---------------------------------------------------
---------------------------------------------------
---------------------------------------------------

Solo, Guitar 2
---------------------------------------------------
---------------------------------------------------
-44444444-33333333-44444444-66666666-44444444-33333
-xxxxxxxx-xxxxxxxx-xxxxxxxx-xxxxxxxx-xxxxxxxx-xxxxx
-22222222-11111111-22222222-44444444-22222222-11111
---------------------------------------------------

---------------------------------------------------
---------------------------------------------------
33-------------------------------------------------
xx-666-888-999-111111-13-14-13---------------------
11-xxx-xxx-xxx-x-x-x--xx-xx-xx---------------------
---444-666-777-9-9-9--11/12\11---------------------
Comments