No Use For A Name - Turning Japanese Chords & Tabs

 

Turning Japanese Chords & Tabs

No Use For A Name Chords & Tabs

Version: 2 Type: Tab 0 ratings
1 star 2 stars 3 stars 4 stars 5 stars
comments

Turning Japanese Tab

I apologise if any of this is wrong, i'm doing this from memory at school,
and i cant remember all of it. I will post the rest of it later.
if you have any corrections please tell me so any tabs i do in futre are better Also, I smell.
(thanks kate!!)

     p = pull off
     ~ = Vibrato
     x = Muted note   

   Intro 1

   e|--3-3-3-3--1-1-------1--|
   B|--3-3-3-3--1-1--3-3--1--|
   G|----------------2-2-----|  x2
   D|------------------------|   
   A|------------------------|
   E|------------------------|

   Verse 1 & 2
[ Tab from: http://www.guitartabs.cc/tabs/n/no_use_for_a_name/turning_japanese_tab_ver_2.html ]
   e|-----------------------------------------------------------|
   B|-----12-12---12-12--------13p12----------------------------|
   G|-----12-12---12-12--------------12----7-7---7-7------------| x2
   D|-----12-12---12-12-----12-------------7-7---7-7------------|
   A|--10-------x--------10--------------9-----x------5-6-7~~---|
   E|-----------------------------------------------------------|


   e|-------------------|
   B|-------------------|    
   G|--2-------5----7---|   play whole verse again
   D|--2-------5----7---|
   A|--0-------3----5---|
   E|-------------------|

   Bridge (this is the bastardy bit i cant really remember sorry)
    
   e|-------------------------------|
   B|--8----------------------------|
   G|--7---7---9---7---5-5--9-9--7--|
   D|--5---7---9---7---5-5--9-9--7--|
   A|------5---7---5---3-3--7-7--5--|
   E|-------------------------------|

   Japanese Lick 

   e|--10-10-10-10--8-8--5-5--10--|
   B|--10-10-10-10--8-8--5-5--10--|
   G|-----------------------------|     play verse and bridge again
   D|-----------------------------| 
   A|-----------------------------|
   E|-----------------------------|
Comments