No Use For A Name - Soulmate Chords & Tabs

 

Soulmate Chords & Tabs

No Use For A Name Chords & Tabs

Version: 2 Type: Tab 0 ratings
1 star 2 stars 3 stars 4 stars 5 stars
comments

Soulmate Tab

I like this song very much and it s one of their best songs!


-------------------------------------No Use for a Name - Soulmate-----------------------------------



----------------------------------------------------------------------
-9-9-8-8-9-9-11-11-9-9-8-8-9-9-11-11-9-9-8-8-9-9-11-11-9-9-8-8-6-6-8-8
----------------------------------------------------------------------   always 2x
----------------------------------------------------------------------
----------------------------------------------------------------------
----------------------------------------------------------------------

---------------------------------------------------------------------
---------------------------------------------------------------------
---------------------------------------------------------------------
-6-----6-----6-----6-----6-----6-----6-----6-----6-----6-----6-----6-
-6-x-x-6-x-x-6-x-x-6-x-x-6-x-x-6-x-x-6-x-x-6-x-x-6-x-x-6-x-x-6-x-x-6-
-4-x-x-4-x-x-4-x-x-4-x-x-4-x-x-4-x-x-4-x-x-4-x-x-4-x-x-4-x-x-4-x-x-4-

----------------------------------------------------------------
----------------------------------------------------------------
6-6-6-6-6-6-6-6-6-6-6-6-6-6-6-6-----------------8-8-8-8-8-8-8-8-
6-6-6-6-6-6-6-6-6-6-6-6-6-6-6-6-6-6-6-6-6-6-6-6-8-8-8-8-8-8-8-8-
4-4-4-4-4-4-4-4-4-4-4-4-4-4-4-4-6-6-6-6-6-6-6-6-6-6-6-6-6-6-6-6-
--------------------------------4-4-4-4-4-4-4-4-----------------

-----------------------------------------------------------------
-----------------------------------------------------------------
-----------------6-6-6-6-6-6-6-6-----------------8-8-8-8-8-8-8-8-
-4-4-4-4-4-4-4-4-6-6-6-6-6-6-6-6-6-6-6-6-6-6-6-6-8-8-8-8-8-8-8-8-
-4-4-4-4-4-4-4-4-4-4-4-4-4-4-4-4-6-6-6-6-6-6-6-6-6-6-6-6-6-6-6-6-
-2-2-2-2-2-2-2-2-----------------4-4-4-4-4-4-4-4-----------------

-----------------------------------------------------------------
-----------------------------------------------------------------
-6-6-6-6-6-6-6-6-6-6-6-6-6-6-6-6---------------------------------
-6-6-6-6-6-6-6-6-6-6-6-6-6-6-6-6-8-8-8-8-8-8-8-8-4-4-4-4-4-4-4-4-
-4-4-4-4-4-4-4-4-4-4-4-4-4-4-4-4-8-8-8-8-8-8-8-8-4-4-4-4-4-4-4-4-
---------------------------------6-6-6-6-6-6-6-6-2-2-2-2-2-2-2-2-

-------------
-------------
-6-6-----8-8-
-6-6-6-6-8-8-
-4-4-6-6-6-6-
-----4-4-----

----------------------------------------------------------------------
-9-9-8-8-9-9-11-11-9-9-8-8-9-9-11-11-9-9-8-8-9-9-11-11-9-9-8-8-6-6-8-8
----------------------------------------------------------------------
----------------------------------------------------------------------
----------------------------------------------------------------------
----------------------------------------------------------------------

---------------------------------------------------------------------
---------------------------------------------------------------------
---------------------------------------------------------------------
-6-----6-----6-----6-----6-----6-----6-----6-----6-----6-----6-----6-
-6-x-x-6-x-x-6-x-x-6-x-x-6-x-x-6-x-x-6-x-x-6-x-x-6-x-x-6-x-x-6-x-x-6-
-4-x-x-4-x-x-4-x-x-4-x-x-4-x-x-4-x-x-4-x-x-4-x-x-4-x-x-4-x-x-4-x-x-4-

----------------------------------------------------------------
----------------------------------------------------------------
6-6-6-6-6-6-6-6-6-6-6-6-6-6-6-6-----------------8-8-8-8-8-8-8-8-
6-6-6-6-6-6-6-6-6-6-6-6-6-6-6-6-6-6-6-6-6-6-6-6-8-8-8-8-8-8-8-8-
4-4-4-4-4-4-4-4-4-4-4-4-4-4-4-4-6-6-6-6-6-6-6-6-6-6-6-6-6-6-6-6-
--------------------------------4-4-4-4-4-4-4-4-----------------

-----------------------------------------------------------------
-----------------------------------------------------------------
-----------------6-6-6-6-6-6-6-6-----------------8-8-8-8-8-8-8-8-
-4-4-4-4-4-4-4-4-6-6-6-6-6-6-6-6-6-6-6-6-6-6-6-6-8-8-8-8-8-8-8-8-
-4-4-4-4-4-4-4-4-4-4-4-4-4-4-4-4-6-6-6-6-6-6-6-6-6-6-6-6-6-6-6-6-
-2-2-2-2-2-2-2-2-----------------4-4-4-4-4-4-4-4-----------------
[ Tab from: http://www.guitartabs.cc/tabs/n/no_use_for_a_name/soulmate_tab_ver_2.html ]
-----------------------------------------------------------------
-----------------------------------------------------------------
-6-6-6-6-6-6-6-6-6-6-6-6-6-6-6-6---------------------------------
-6-6-6-6-6-6-6-6-6-6-6-6-6-6-6-6-8-8-8-8-8-8-8-8-4-4-4-4-4-4-4-4-
-4-4-4-4-4-4-4-4-4-4-4-4-4-4-4-4-8-8-8-8-8-8-8-8-4-4-4-4-4-4-4-4-
---------------------------------6-6-6-6-6-6-6-6-2-2-2-2-2-2-2-2-

-------------
-------------
-6-6-----8-8-
-6-6-6-6-8-8-
-4-4-6-6-6-6-
-----4-4-----

-------------------------------------------------------------------------
-------------------------------------------------------------------------
-------------------------8-8-8-8-------------------------8-8-8-8-6-6-6-6-
-6-6-6-6-5-5-5-5-3-3-3-3-8-8-8-8-6-6-6-6-5-5-5-5-3-3-3-3-8-8-8-8-6-6-6-6-
-6-6-6-6-5-5-5-5-3-3-3-3-6-6-6-6-6-6-6-6-5-5-5-5-3-3-3-3-6-6-6-6-4-4-4-4-
-4-4-4-4-3-3-3-3-1-1-1-1---------4-4-4-4-3-3-3-3-1-1-1-1-----------------

-------------------------------------------------------------------------
-------------------------------------------------------------------------
---------8-8-8-8-------------------------6-6-6-6-5-5-5-5-9-9-9-9-8-8-8-8-
-3-3-3-3-8-8-8-8-6-6-6-6-5-5-5-5-5-3-3-3-6-6-6-6-5-5-5-5-9-9-9-9-8-8-8-8-
-3-3-3-3-6-6-6-6-6-6-6-6-5-5-5-5-3-3-3-3-4-4-4-4-3-3-3-3-7-7-7-7-6-6-6-6-
-1-1-1-1---------4-4-4-4-3-3-3-3-1-1-1-1---------------------------------

---------------------------------------------------------------------------------------------
-------------------------------------9----9----9----9----9----9----9----9---8---8---8---8---8
----------------------------------10---10---10---10---10---10---10---10---8---8---8---8---8--
-6--11-10-8-10-11-10-10-11-10-8-4------------------------------------------------------------
---------------------------------------------------------------------------------------------
---------------------------------------------------------------------------------------------

------------------------9----9--11--9-------
---8---8---8--9-11-11-9---11----------11--9-
-8---8---8----------------------------------
--------------------------------------------
--------------------------------------------
--------------------------------------------

---------------------------------------------------------------------
---------------------------------------------------------------------
---------------------------------------------------------------------
-6-----6-----6-----6-----6-----6-----6-----6-----6-----6-----6-----6-
-6-x-x-6-x-x-6-x-x-6-x-x-6-x-x-6-x-x-6-x-x-6-x-x-6-x-x-6-x-x-6-x-x-6-
-4-x-x-4-x-x-4-x-x-4-x-x-4-x-x-4-x-x-4-x-x-4-x-x-4-x-x-4-x-x-4-x-x-4-

----------------------------------------------------------------
----------------------------------------------------------------
6-6-6-6-6-6-6-6-6-6-6-6-6-6-6-6-----------------8-8-8-8-8-8-8-8-
6-6-6-6-6-6-6-6-6-6-6-6-6-6-6-6-6-6-6-6-6-6-6-6-8-8-8-8-8-8-8-8-
4-4-4-4-4-4-4-4-4-4-4-4-4-4-4-4-6-6-6-6-6-6-6-6-6-6-6-6-6-6-6-6-
--------------------------------4-4-4-4-4-4-4-4-----------------

-----------------------------------------------------------------
-----------------------------------------------------------------
-----------------6-6-6-6-6-6-6-6-----------------8-8-8-8-8-8-8-8-
-4-4-4-4-4-4-4-4-6-6-6-6-6-6-6-6-6-6-6-6-6-6-6-6-8-8-8-8-8-8-8-8-
-4-4-4-4-4-4-4-4-4-4-4-4-4-4-4-4-6-6-6-6-6-6-6-6-6-6-6-6-6-6-6-6-
-2-2-2-2-2-2-2-2-----------------4-4-4-4-4-4-4-4-----------------

-----------------------------------------------------------------
-----------------------------------------------------------------
-6-6-6-6-6-6-6-6-6-6-6-6-6-6-6-6---------------------------------
-6-6-6-6-6-6-6-6-6-6-6-6-6-6-6-6-8-8-8-8-8-8-8-8-4-4-4-4-4-4-4-4-
-4-4-4-4-4-4-4-4-4-4-4-4-4-4-4-4-8-8-8-8-8-8-8-8-4-4-4-4-4-4-4-4-
---------------------------------6-6-6-6-6-6-6-6-2-2-2-2-2-2-2-2-

-------------
-------------
-6-6-----8-8-
-6-6-6-6-8-8-
-4-4-6-6-6-6-
-----4-4-----

----------------------------------------------------------------------
-9-9-8-8-9-9-11-11-9-9-8-8-9-9-11-11-9-9-8-8-9-9-11-11-9-9-8-8-6-6-8-8
----------------------------------------------------------------------
----------------------------------------------------------------------
----------------------------------------------------------------------
----------------------------------------------------------------------


Hey,THATS IT!I think its all right!No Use for Correction,but Comments: nofxel@t-online.de
Comments