No Use For A Name - Room 19 Chords & Tabs

 

Room 19 Chords & Tabs

No Use For A Name Chords & Tabs

Version: 2 Type: Bass Tab 0 ratings
1 star 2 stars 3 stars 4 stars 5 stars
comments

Room 19 Bass Tab

Artist: No Use For A Name
Song: Room 19
Album: More Betterness
Tabbed By: Mike O'Mara
E-mail: volcom1218@hotmail.com

The guitar plays the first half of the first and second verses.

Verse 1:
G|--------|                                                G|------|
D|--------|  (guitar plays first half of verse 1)          D|------|
A|--44----|                                                A|--0---|
E|--------|                                                E|---0--|
"It's been so long since you've been here..."
G|---------------------------------------------------------------------|
D|---------------------------------------------------------------------|
A|--44444444-22222222------------------00000000--------------------0---|
E|--------------------0000000000000000----------00000000-44444444---0--|
"Just drop the present on the shelf..."

Verse 2:
G|--------|                                                G|------|
D|--------|  (guitar plays first half of verse 2)          D|------|
A|--44----|                                                A|--0---|
E|--------|                                                E|---0--|
"Looking back I can't recall..."
G|---------------------------------------------------------------------|
D|---------------------------------------------------------------------|
A|--44444444-22222222------------------00000000------------------------|
E|--------------------0000000000000000----------00000000-44444444------|
"Like a bird that used to sing..."
G|------------|
D|------------|
A|------------|
E|--55555555--|
"...and it's hard to look back!"
[ Tab from: http://www.guitartabs.cc/tabs/n/no_use_for_a_name/room_19_btab_ver_2.html ]
Chorus: 
G|------------------------------------------------------------------------|
D|------------------------------------------------------------------------|
A|-----------22222222-4444444444444444-------------------2222222222222222-|
E|--00000000---------------------------22222222-00000000------------------|
"Better days, in different ways..."
G|-------------------------------------------------------|
D|-------------------------------------------------------|
A|-----------22222222-4444444444444444-------------------|
E|--00000000---------------------------22222222-00000000-|
"Don't know what its about..."
G|---------------------------------|
D|---------------------------------|
A|--555555555555-5-4-2222222222222-|
E|---------------------------------|

Verse 3:
G|----------------------------------------------------------------------------|
D|----------------------------------------------------------------------------|
A|--44444444-22222222------------------00000000----------------------------0--|
E|--------------------0000000000000000----------44444444-2222222222222222---0-|
"I can't believe the world..."
G|------------------------------------------------------------------------|
D|------------------------------------------------------------------------|
A|--44444444-22222222------------------00000000---------------------------|
E|--------------------0000000000000000----------00000000-44444444---------|
"Living in my bed..."
G|------------|
D|------------|
A|------------|
E|--55555555--|
"...takes me to a different place!"

Chorus: 
G|------------------------------------------------------------------------|
D|------------------------------------------------------------------------|
A|-----------22222222-4444444444444444-------------------2222222222222222-|
E|--00000000---------------------------22222222-00000000------------------|
"Did you know, that I was just as young as you..."
G|-------------------------------------------------------|
D|-------------------------------------------------------|
A|-----------22222222-4444444444444444-------------------|
E|--00000000---------------------------22222222-00000000-
"Did you say? That yesterday, or just right now..."
G|------------------------------------------------------|
D|------------------------------------------------------|
A|--555555555555-5-4-2222222222222-0--------------------|
E|-----------------------------------4-0~~~~~~~~~~~~~~~~|
                                           "Did you say?..."
Comments