No Use For A Name - Old Whats His Name Chords & Tabs

 

Old Whats His Name Chords & Tabs

No Use For A Name Chords & Tabs

Version: 1 Type: Bass Tab 0 ratings
1 star 2 stars 3 stars 4 stars 5 stars
comments

Old Whats His Name Bass Tab

   
------------------------------------------------------------------
OLD WHATS HIS NAME / No Use For A Name
------------------------------------------------------------------

tabbed by Carlos Pino

G-|---------------------------------------------------------------------
D-|---------------------------------------------------------------------
A-|-7-7-7-7-5-5-5-5-3-3-3-3-5-5-5-5-2-2-2-2-3-3-3-3-2-------------------
E-|----------------------------------------------------0-0-0-0-0-0-0-0--

G-|-----------------------------------------------------------------------
D-|-----------------------------------------------------------------------
A-|-7-7-7-7-5-5-5-5-3-3-3-3-5-5-5-5-2-2-2-2-3-3-3-3-7-7-7-7-7-7-7-7------|
E-|-----------------------------------------------------------------5-5--|

G-|-----------------------------------------------------------------
D-|-----------------------------------------------------------------
A-|-----------------------------------------------------------------
E-|-x-7-x-7-x-7-x-7-x-7-x-7-x-7-5-5-x-3-x-3-x-3-x-3-x-3-x-3-x-3-5-5-

G-|-------------------------------------------------------------------------|
D-|-------------------------------------------------------------------------|
A-|-------------------------------------------------------------------------
E-|-x-7-x-7-x-7-x-7-x-7-x-7-x-7-5-5-x-3-x-3-x-3-x-3-x-3-x-3-x-3-5-5-5-5-5-5-|

G-|----------------------------------------------------------------------|
D-|-----------------------------------------------------------------
A-|-7-7-7-7---------5-5-5-5---------7-7-7-7---------5-5-5-5----7-7-7-7-7--|
E-|---------3-3-3-3---------5-5-5-5---------3-3-3------------5------------|

G-|-----------------------|------------------------------------------------------
D-|-----------------------|--------------------------------------------------
A-|-----------------------|-3-3-3-3-3-3-3-3-5-5-5-5-5-5-5-5------------------
E-|-2-2-2-2-5-4-0-0-0-0-0-|----------------------------------5-5-5-5-5-5-5-5-
[ Tab from: http://www.guitartabs.cc/tabs/n/no_use_for_a_name/old_whats_his_name_btab.html ]
G-|-----------------------------------------------------|
D-|----------------------------------------------------------|
A-|-7-7-7-7-7-7-7-7-3-3-3-3-3-3-3-3-5-5-5-5-|
E-|--------------------------------------------------------|

G-|-----------------------------------------------------------------
D-|-----------------------------------------------------------------
A-|------------------------------------------------------------------------------------
E-|-x-7-x-7-x-7-x-7-x-7-x-7-x-7-5-5-x-3-x-3-x-3-x-3-x-3-x-3-x-3-5-5-

G-|-------------------------------------------------------------------------|
D-|-------------------------------------------------------------------------|
A-|----------------------------------------------------------------------------------------------------
E-|-x-7-x-7-x-7-x-7-x-7-x-7-x-7-5-5-x-3-x-3-x-3-x-3-x-3-x-3-x-3-5-5-5-5-5-5-|

G-|----------------------------------------------------------------------|
D-|----------------------------------------------------------------------|
A-|-7-7-7-7---------5-5-5-5---------7-7-7-7---------5-5-5-5-----7-7-7-7-7--|
E-|---------3-3-3-3---------5-5-5-5---------3-3-3-3------------5------------|

G-|-----------------------|-------------------------------------------------
D-|-----------------------|-------------------------------------------------------
A-|--------------------------------|-3-3-3-3-3-3-3-3-5-5-5-5-5-5-5-5---
E-|-2-2-2-2-5-4-0-0-0-0-0-|-----------------------------------------------5-5-5-5-5-5-5-5-

G-|-----------------------------------------|
D-|-----------------------------------------|
A-|-7-7-7-7-7-7-7-7-3-3-3-3-3-3-3-3-5-5-5-5-|
E-|-----------------------------------------|


G-|------------------------------------------------------------------------------------------
D-|------------------------------------------------------------------------------------------
A-|-3-3-3-3-3-3-3-3-5-5-5-5-5-5-5-5-------------------------7-7-7-7-7-7-7-7-
E-|---------------------------------------------5-5-5-5-5-5-5-5---------------------------

G-|-------------------------|--------------|
D-|----------------------------------|------
A-|-3-3-3-3-3-3-3-3-5-5-5-5-|---|--
E-|-------------------------|---------------



Comments