No Use For A Name - Not Your Savior Chords & Tabs

 

Not Your Savior Chords & Tabs

No Use For A Name Chords & Tabs

Version: 1 Type: Tab 0 ratings
1 star 2 stars 3 stars 4 stars 5 stars
comments

Not Your Savior Tab

   
  The rhythm guitar through out this song is played in "Power 
  Chords", although two of the power chords are not standard.  
  I like to call these "non-standard" power chords "Inverted Power
  Chords." I have labeled the two inverted power chords below. (the 
  x's mean those strings aren't played).
  
  Inverted Power Chords
  ---------------------
  G/B   x25xxx
  D/F#  25xxxx   
  
                      -------------------
                      OPENING LEAD GUITAR
                      -------------------
  C5  (the C5 is the rhythm guitar played underneath the lead) 
E ------------------------------------------------------------
B -8-8-8------------8-8-8------------8-8----------------------
G ------------------------------------------------------------
D --------10-10-10---------10-10-10-------10-10---------------
A ------------------------------------------------------------
E ------------------------------------------------------------

  E5
E ------------------------------------------------------------
B -8-8-8---------8-8-8---------8-8----------------------------
G ------------------------------------------------------------
D --------9-9-9---------9-9-9-------9-9-----------------------
A ------------------------------------------------------------
E ------------------------------------------------------------

  F5
E ------------------------------------------------------------
B -6-6-6---------6-6-6---------6-6----------------------------
G ------------------------------------------------------------
D --------7-7-7---------7-7-7-------7-7-----------------------
A ------------------------------------------------------------
E ------------------------------------------------------------

  G5                                     C5
E ------------------------------------------------------------
B -8-8-8---------8-8-8---------8-8----------------------------
G ----------------------------------------------9--10-9--12---
D --------9-9-9---------9-9-9-------9-9-(10)----x--x--x--x----
A ----------------------------------------------7--8--7--10---
E ------------------------------------------------------------
  *PLAY THE OPENING RIFF 2 TIMES*
  (STRIKE THE (10) THE 2ND TIME THROUGH, THEN PLAY THE OCTAVES)


LYRICS WITH RHYTHM
------------------
[ Tab from: http://www.guitartabs.cc/tabs/n/no_use_for_a_name/not_your_savior_tab.html ]
C5      D5       C5  G/B                      C5        G/B A5 G5        F5
UNLUCKY SEVENTEEN    ALREADY HANDED PLANS FOR THE FUTURE       GLAMOUR OBSESSED
            G5                     C5                D5        C5 G/B
TOLD HOW TO DRESS AND SHOWN HOW TO THINK AND I DON'T HAVE A JOB   BUT I CAN 
               C5       G/B A5 G5      F5              G5                 A5
HOW YOU HOW TO BE A SLOB       SO MANY DAYS WASTED AND GLAZED SOMETIMES I LAUGH 
         F5                C5                       D/F#(MUTED)       F5
ALOUD AS I THINK ABOUT YOU ASKING ME PLEASE CAN YOU HELP CAN'T HELP MYSELF
G5               C5                 G5                    F5
I'M NOT YOUR SAVIOR I'M NOT WHO YOU WANT ME TO BE A COWARDLY MISTAKE I'VE
             G5                       C5                  E5
MADE SO MANY TIMES BEFORE REFUSING TO BREAK CUT MY LOSSES TIES THEM WITH 
           F5                                                  C5 G/B A5 G5 F5 G5
YOU LIKE A GOOD BOY I'LL PRETEND AND PROMISE NOT TO DO IT AGAIN 
C5       D5         C5 G/B                    C5       G/B A5 G5         F5
DO YOU REMEMBER WHEN   LIFE WAS SO SIMPLE AND PERMANENT       EVERYONE'S CHANGED 
          G5            A5                F5               C5 
EVERYONES COOL EVERYONE SUCKS BUT I CAN'T SEEM TO COMPLAIN EXCITING AND NEW
            D/F#(MUTED)          F5     G5              C5
IS JUST NOT THERE YOU'RE GETTING SCARED I'M NOT YOUR SAVIOR NEVER THOUGHT I 
G5               F5                            G5
WAS ANYWAY I'M A VOID WITH EMPTY PROMISES THAT BACKS OUT LATE NEVER SAID I'D 
C5                     E5                         F5                    
CHANGE TAKING BACK THE WORDS THAT WE SPOKE LIKE A FUEL TANK RUNNING DRY YOU'LL

BELEIVE IT WHEN I CHOKE

-------------------------------------------------------
*THE SONG ENDS WITH THE LEAD GUITAR SLOWLY FADING AWAY*
-------------------------------------------------------

if you have any questions e-mail me: nollynixon1@hotmail.com 
 


 

  
Comments