No Use For A Name - Killing Time Chords & Tabs

 

Killing Time Chords & Tabs

No Use For A Name Chords & Tabs

Version: 1 Type: Tab

Killing Time Tab

   
No Use For A Name
Killing Time


INTRO:

Lead Guitar:

1|-----------------------------------------------------------|
2|-----------------------------------------------------------|
3|-- 12--12--12-12-11-11-11-11-14--14--14-14-14-12-12-12-12--|
4|-----------------------------------------------------------|
5|---10—-10--10-10-10-10-10-10-12--12--12-12-12-10-10-10-10--|
6|-----------------------------------------------------------|

2nd Guitar: G5   F#5+(no3)   E5   C5

1|-----------------------|
2|-----------------------|
3|-----------9---5-------|
4|--5----4---9---5-------|
5|--5----5---7---3-------|
6|--3----2---------------|


VERSE 1:

    G5    B5  E5  C5
1|-----------------------|
2|-----------------------|
3|--12----4---9---5------|
4|--12----4---9---5------|
5|--10----2---7---3------|
6|-----------------------|

(G5) 
Not Knowing what he had got into, only 
(B5) 
following the sheep
(E5) 
The message sent for his deployment at only 
(C5) 
twenty-three

(G5) 
Promised to be there for a short time
(B5) 
His mother looks at photos
(E5)
Passed down from a family tradition;
(C5)	             (D5)  
Her head lies on her lap… >>>>>>>>>>>

Chorus 1:
	      (E5)		     (C5)
I'll never be sure! exactly what it means
	      (G5)	      F#5+(no3)		
To serve and protect us from "enemies"

1|-------------------------------------------|
2|-------------------------------------------|
3|--5/14-14-14-14-12-12-12-12-12-------------|
4|-------------------------------------------|
5|--3/12-12-12-12-10-10-10-10-10-------------|
6|-------------------------------------------|

		      (E5)
They make sure we're scared
                (C5)
To justify this ugly, bloody mess
                     (G5)	         F#5+(no3)
It's less than your pride, it's suicide at best

1|-------------------------------------------|
2|-------------------------------------------|
3|--5/14-14-14-14-12-12-12-12-12-------------|
4|-------------------------------------------|
5|--3/12-12-12-12-10-10-10-10-10-------------|
6|-------------------------------------------|

[ Tab from: http://www.guitartabs.cc/tabs/n/no_use_for_a_name/killing_time_tab.html ]
1|-----------------------------------------------------------|
2|-----------------------------------------------------------|
3|-- 12--12--12-12-11-11-11-11-14--14--14-14-14-12-12-12-12--|
4|-----------------------------------------------------------|
5|---10—-10--10-10-10-10-10-10-12--12--12-12-12-10-10-10-10--|
6|-----------------------------------------------------------|

VERSE 2: Same as verse 1

(G5) 					 (B5) 
The waiting fills her with delusion and memories gone by
(E5)
"How could I give life to my baby
             (C5)
and then let him go die?"
(G5) 					  (B5)
But with this joke administration where no one is exempt
(E5)
It's not your fault and never will be.
(C5)		     (D5)	
Don't hold love in contempt...


                (E5)	              (C5)
I feel like I'm lost, drowning out at sea
               (G5)                    F#5+(no3)
Surrounded by space with no regard for sympathy

1|-------------------------------------------|
2|-------------------------------------------|
3|--5/14-14-14-14-12-12-12-12-12-------------|
4|-------------------------------------------|
5|--3/12-12-12-12-10-10-10-10-10-------------|
6|-------------------------------------------|

               (E5)		       (C5)
She sees the parade of victory and war that wasn't won
                (G5)                F#5+(no3) 
"I'm not coming home." "He's my only son."


1|-------------------------------------------|
2|-------------------------------------------|
3|--5/14-14-14-14-12-12-12-12-12-------------|
4|-------------------------------------------|
5|--3/12-12-12-12-10-10-10-10-10-------------|
6|-------------------------------------------|

>>>>>> (C5)		(D5)
If an angel earns its wings 
      (E5)          (C5)
every time somebody dies
      (C5)             (D5)
Then todays the angels black out the blue sky




Final solo: with a slide

    G5          B5            E5        C5
1|---------------------------------------------------------|
2|---------------------------------------------------------|
3|-----------9---------------------------------------------|
4|--9-9/12------9-9/12-----12-12/9—9/10—10-10/9------------|
5|---------------------------------------------------------|
6|---------------------------------------------------------|

Final with riff 1:

1|-----------------------------------------------------------|
2|-----------------------------------------------------------|
3|-- 12--12--12-12-11-11-11-11-14--14--14-14-14-12-12-12-12--|
4|-----------------------------------------------------------|
5|---10—-10--10-10-10-10-10-10-12--12--12-12-12-10-10-10-10--| x4
6|-----------------------------------------------------------|

Please rate and comment
Guido