No Use For A Name - International You Day Chords & Tabs

 

International You Day Chords & Tabs

No Use For A Name Chords & Tabs

Version: 1 Type: Tab 0 ratings
1 star 2 stars 3 stars 4 stars 5 stars
comments

International You Day Tab

this is my first tab but its almost 100% accurate

intro
E------------------------------------------------
B------------------------------------------------
G-8-7-8-7-10-8--3-5-3--12-10-12-10-13-12-7-8-10--   Guitar 1
D------------------------------------------------
A-6-5-6-5--8-6--1-3-1--10--8-10--8-11-10-5-6--8--
E------------------------------------------------

E-------------------------------
B-------------------------------
G-------------------------------
D---------------8--x8----------- play full chords on repeat
A--10-x8--6-x8-6-------8-x8-----
E-8------4------------6---------

verse
E--------------------------------------------
B--------------------------------------------
G-----------------------------1st-----2nd----
D----------------------8--x8-----------------
A--10-x6--8-x2--6-x8--6-------8-x8-----5-----
E-8------6-----4-------------6---------3-----
[ Tab from: http://www.guitartabs.cc/tabs/n/no_use_for_a_name/international_you_day_tab.html ]
prechorus
E----------------------------------------
B----------------------------------------
G----------------------------------------
D----------------------------------------    don't know high part
A-6--x8-8--x8--5--x8-10-x4-8--x4--6--x12-
E-4-----6------3------8----6------4------

chorus
E---------------------------------------------
B---------------------------------------------
G-----------------------------1st------2nd----
D-8--x8---------------------------------------
A-6-----10--x8--8--x8---6-x4--6-x4------8-x4--
E--------8------6-------4-----3---------6-----

outro
E------------------------------------------------
B---------------1st-------2nd------------end on--
G-8----7----3---5----3---------------------------
D---x8---x8--x8---x4--x4-------------------8-----
A-6----5----1---3----1----6--x4--8--x4-----6-----
E-------------------------4------6---------------

thats pretty much it

all aboard the jua train!
Comments