No Use For A Name - Friends Of The Enemy Chords & Tabs

 

Friends Of The Enemy Chords & Tabs

No Use For A Name Chords & Tabs

Version: 1 Type: Bass Tab 0 ratings
1 star 2 stars 3 stars 4 stars 5 stars
comments

Friends Of The Enemy Bass Tab

No Use For A Name
Friends of the Enemy
Hard Rock Bottom
Tabbed by: Justin Baillargeron

 Main Bass theme
|-------------------|------------------------|
|-----10---9---10---|-------12----10----9----|
|-8-8----8---8----8-|-10-10----10----10---10-|
|-------------------|------------------------|
 							   end
|------------------9----12---10----9--------|-------|
|-------10----12-----10----10---10---10-10\-|-------|
|-12-12----12----12-------------------------|-7--2--|
|-------------------------------------------|-------|

 verse			    End
|------------|-------------|---------------|
|------------|-------------|---------------|
|----------3-|-------------|-------8-7-5-7-|
|-1--3--5----|-1--3--5--3--|-3--1----------|
 listen for rhythm                 these notes played with words

 chorus
|------------------------------------------------|
|------------------------------------------------|
|-3---------8--7--5------------------------------|
|---3--5--1--------------------------------------|
 listen for rhythm yet again

|--------------------------------------------------|
|--------------7---7-------------------------------|
|-3-------5-\5---5---5/----------------------------|
|---3--5----------------1--3-----------------------|
[ Tab from: http://www.guitartabs.cc/tabs/n/no_use_for_a_name/friends_of_the_enemy_btab.html ]
verse	2	   		    end
|------------|-------------|---------------|
|------------|-------------|---------------|
|----------3-|-------------|-------10------|
|-1--3--5----|-1--3--5--3--|-3--1----------|
 
 Bridge 1
|--------------------------------------------------|
|--------------------------------------------------|
|------------------2-2-2--3-3-3-3--3-3-3-3--3-3-3--|
|-1-1-1-1--1-1-1-1---------------------------------|

|--------------------------------------------------|
|--------------------------------------------------|
|--------------------------------------------------|
|-1-1-1-1--1-1-1-1--1-1-1--5-5-5-5--3-3-3-3--3-3-3-|
 
 Bridge 2
|-------------------------------------|
|-----10--------10------9---9---------|
|-8-8----8--8-8----8--8---8-----------|
|-------------------------------------|

|-------12-----------12----10-10-10\--|
|-10-10----10--10-10----10------------|
|-------------------------------------|
|-------------------------------------|

|--------------------------9--9--9--9--7-7-7-7--7-7-7-|
|-----7--------7------7----7--7--7--7--5-5-5-5--5-5-5-|
|-8-8---8--8-8---8--8---8-----------------------------|
|-----------------------------------------------------|

 Outro Chorus
|--------------------|----------------------------|
|--------------------|----------------------------|
|-3---------8--7--5--|-3--------------------------|
|---3--5--1----------|---3--5--1------------------|

 last time
|------------------|-------------------------------|
|------------------|---2---5-----------------------|
|-3----------8-7-5-|-3-----------------------------|
|----3--5--1-------|-----------5--1----------------|
			  last fill

This should pretty much be it, I'm a little unsure about a couple parts, but sounds fine.
Comments