No Use For A Name - For Fiona Chords & Tabs

 

For Fiona Chords & Tabs

No Use For A Name Chords & Tabs

Version: 1 Type: Tab 0 ratings
1 star 2 stars 3 stars 4 stars 5 stars
comments

For Fiona Tab

Song: For Fiona
Artist: No Use for a Name
Album: Keep Them Confused

Guitar 1 Intro:

E|---------------------------------------------------|
B|---------------------------------------------------|
G|--444444444444--888888888888-----------------------|
D|--444444444444--888888888888--6-----4-----2-----4--|
A|--222222222222--666666666666--6-----4-----2-----4--|
E|------------------------------4-----2-----0-----2--|

Guitar 2 Intro:

E|----------------------------------------------------------------|
B|----------------------------------------------------------------|
G|--111111111111--888888--111111111111--666666--8--6--8--6--4--3--|
D|----------------------------------------------------------------|
A|---9-9-9-9-9-9--666666---9-9-9-9-9-9--444444--6--4--6--4--2--1--|
E|----------------------------------------------------------------|

Verse:

E|------------------------------------------|
B|------------------------------------------|
G|--------------------------------44444444--|
D|--22222222--44444444--66666666--44444444--|
A|--22222222--44444444--66666666--22222222--|
E|--00000000--22222222--44444444------------|

(I can only try...)
E|------------------------------------------|
B|------------------------------------------|
G|------------------------------------------|
D|--22222222--44444444--22222222--44444444--|
A|--22222222--44444444--22222222--44444444--|
E|--00000000--22222222--00000000--22222222--|

Verse 2:

(If I could...)
E|------------------------------------------------|
B|--------------------------------------xxx--xxx--|
G|--xxx--xxx----xxx--xxx----xxx--xxx----444--444--|
D|--222--222----444--444----666--666----444--444--|
A|--222--222----444--444----666--666----222--222--|
E|--000--000----222--222----444--444--------------|

(Unfortunately...)
E|------------------------------------------------|
B|------------------------------------------------|
G|--xxx--xxx----xxx--xxx----xxx--xxx--------------|
D|--222--222----444--444----222--222--4444444444--|
A|--222--222----444--444----222--222--4444444444--|
E|--000--000----222--222----000--000--2222222222--|

Chorus:
[ Tab from: http://www.guitartabs.cc/tabs/n/no_use_for_a_name/for_fiona_tab.html ]
E|--------------------------------------------------------|
B|--------------------------------------------------------|
G|--444444444444--888888888888----------------------------|
D|--444444444444--888888888888--6666--4444--222222222222--|
A|--222222222222--666666666666--6666--4444--222222222222--|
E|------------------------------4444--2222--000000000000--|

(Let it all crash...)
E|---------------------------------------------------|
B|---------------------------------------------------|
G|--444444444444--888888888888-----------------------|
D|--444444444444--888888888888--6-----4-----2-----4--|
A|--222222222222--666666666666--6-----4-----2-----4--|
E|------------------------------4-----2-----0-----2--|

Then play Verse 2

Other guitar plays:

E|-------------------------------------------|
B|-------------------------------------------|
G|--11---11---11---11----11---11---11---11---|
D|-----9----9----9----9-----8----8----8---8--|
A|-------------------------------------------|
E|-------------------------------------------|

E|--------------------------------------|
B|--------------------------------------|
G|--11---11---11---11---11---11---11----|
D|-----9----9----9----9----9----9----9--|
A|--------------------------------------|
E|--------------------------------------|

(You took my life...)
E|------------------------------------------------|
B|------------------------------------------------|
G|--11---11---11---11----11----11----11----11-----|
D|-----9----9----9----9-----11----11----11----11--|
A|------------------------------------------------|
E|------------------------------------------------|

(And always know...)
E|-------------------------------------|
B|-------------------------------------|
G|--11---11---11---11------------------|
D|-----9----9----9----9----4444444444--|
A|-------------------------4444444444--|
E|-------------------------2222222222--|

Then play Chorus

Bridge:

(I'm always here...)
E|--------------------------------------------------------|
B|--------------------------------------------------------|
G|--444444444444--888888888888----------------------------|
D|--444444444444--888888888888--6666--4444--222222222222--|
A|--222222222222--666666666666--6666--4444--222222222222--|
E|------------------------------4444--2222--000000000000--|

Then play Chorus
Comments