No Use For A Name - Feels Like Home Chords & Tabs

 

Feels Like Home Chords & Tabs

No Use For A Name Chords & Tabs

Version: 1 Type: Tab 1 rating
1 star 2 stars 3 stars 4 stars 5 stars
comments

Feels Like Home Tab

Song: Feels Like Home
Artist: No Use For A Name
Album: Hard Rock Bottom



Please note: This is the whole song, there is only one verse.




    
intro:  
e|---------------------------------------------------------------------------| 
B|---------------------------------------------------------------------------| 
G|---------------------------------------------------------------------------| 
D|-x-x-x-x-------------------------------------5---5---5---5---5---5---5---5-| 
A|-x-x-x-x---6---6---6---6----8---8---8---8--3---3---3---3---3---3---3---3---| 
E|-x-x-x-x-4---4---4---4----6---6---6---6------------------------------------| 
           It’s too         late      to      talk to you
e|---------------------------------------------------------------------------| 
B|---------------------------------------------------------------------------| 
G|---------------------------------------------------------------------------| 
D|-------------------------------------8---8---8---8---8---8---8---8---------| 
A|---6---6---6---6----8---8---8---8--6---6---6---6---6---6---6---6-----------| 
E|-4---4---4---4----6---6---6---6--------------------------------------------| 
   And it’s too     soon  to say  good bye
e|---------------------------------------------------------------------------| 
B|---------------------------------------------------------------------------| 
G|---------------------------------------------------------------------------| 
D|-------------------------------------5---5---5---5---5---5---5---5---------| 
A|---6---6---6---6----8---8---8---8--3---3---3---3---3---3---3---3-----------| 
E|-4---4---4---4----6---6---6---6--------------------------------------------| 
    Listen ////////// wherever        you may be, 
e|---------------------------------------------------------------------------| 
B|---------------------------------------------------------------------------| 
G|---------------------------------------------------------------------------| 
D|---------------------------------------------------------------------------| 
A|---6---6---6---6---6---6---6---6-----8---8---8---8---8---8---8---8---------| 
E|-4---4---4---4---4---4---4---4-----6---6---6---6---6---6---6---6-----------| 
    you still live inside my         mind
"chorus": 
[ Tab from: http://www.guitartabs.cc/tabs/n/no_use_for_a_name/feels_like_home_tab.html ]
e|---------------------------------------------------------------------------| 
B|---------------------------------------------------------------------------| 
G|---------------------------------------------------------------------------| 
D|---8---8---8---8---8---8---8---8-------------------------------------------| 
A|-6---6---6---6---6---6---6---6------8---8---8---8---8---8---8---8----------| 
E|----------------------------------6---6---6---6---6---6---6---6------------| 
    Something tells me that you are  free again  in a 
e|---------------------------------------------------------------------------| 
B|---------------------------------------------------------------------------| 
G|---------------------------------------------------------------------------| 
D|---5---5---5---5-----------------------------------------------------------| 
A|-3---3---3---3-----8---8---8---8----6---6---6---6---6---6---6---6----------| 
E|-----------------6---6---6---6----4---4---4---4---4---4---4---4------------| 
    place that     feels like        Home.


e|---------------------------------------------------------------------------| 
B|---------------------------------------------------------------------------| 
G|---------------------------------------------------------------------------| 
D|---8---8---8---8---8---8---8---8-------------------------------------------| 
A|-6---6---6---6---6---6---6---6------8---8---8---8---8---8---8---8----------| 
E|----------------------------------6---6---6---6---6---6---6---6------------| 
    It’s never easy to     under--stand  why memor


e|---------------------------------------------------------------------------| 
B|---------------------------------------------------------------------------| 
G|---------------------------------------------------------------------------| 
D|---5---5---5---5-----------------------------------------------------------| 
A|-3---3---3---3-----8---8---8---8----6---6---6---6---6---6---6---6----------| 
E|-----------------6---6---6---6----4---4---4---4---4---4---4---4------------| 
     ies           hold our         hand         but




End

e|---------------------------------------------------------------------------| 
B|---------------------------------------------------------------------------| 
G|---------------------------------------------------------------------------| 
D|------------8--------------------------------------------------------------| 
A|-6--5---3---6--------------------------------------------------------------| 
E|-4--3---1------------------------------------------------------------------| 
  people let go.



Tabbed by Bullfrog2889@yahoo.com 
Comments