No Use For A Name - Fairy Tale Of New York Chords & Tabs

 

Fairy Tale Of New York Chords & Tabs

No Use For A Name Chords & Tabs

Version: 2 Type: Tab 0 ratings
1 star 2 stars 3 stars 4 stars 5 stars
comments

Fairy Tale Of New York Tab

   
This is a great cover and seens though there aren't any complete tabs for it I thought 
make one. Enjoy!

Intro bass,violin and piano

Guitars 1&2
e---------------------------------------------------------------------|
B---------------------------------------------------------------------|
G---------------------------------------------------------------------|
D-9999999999999999-9999999999999999-----------------------------------|
A-7777777777777777-7777777777777777-7777777777777777-9999999999999999-|
E-----------------------------------5555555555555555-7777777777777777-|

e----------------------------------------------------------------------|
B----------------------------------------------------------------------|
G----------------------------------------------------------------------|
D-9999999999999999-9999999999999999------------------------------------|
A-7777777777777777-7777777777777777-7777777777777777-9999-222222222222-|
E-----------------------------------5555555555555555-7777-000000000000-|

Solo guitar 1
e-7-9-7-------7-9-7-----------------------------|
B-------9-5-7-------7-5-7-9-7-5-----------------|
G-------------------------------6---6-4-6-8-9---|
D---------------------------------7-------------|
A-----------------------------------------------|
E-----------------------------------------------|

During Solo guitar 2
e-------------------------------------------------------------------------|
B-------------------------------------------------------------------------|
G-------------------------------------------------------------------------|
D-99999999----------99999999----------99999999-------------------99999999-|
A-77777777-99999999-77777777-99999999-77777777-77777777-99999999-77777777-|
E----------77777777----------77777777----------55555555-77777777----------|

Verse Guitars 1&2
e-------------------------------------------------------------------------|
B-------------------------------------------------------------------------|
G-------------------------------------------------------------------------|
D-99999999----------66666666----------99999999----------99999999----------|
A-77777777-99999999-44444444-77777777-77777777-99999999-77777777-99999999-|
E----------77777777----------55555555----------77777777----------77777777-|

e------------------------------------------------------------------------|
B------------------------------------------------------------------------|
G------------------------------------------------------------------------|
D-99999999-66666666-99999999----------9999999999999999----------99999999-|
A-77777777-44444444-77777777-77777777-7777777777777777-99999999-77777777-|
E----------------------------55555555------------------77777777----------|

e-------------------------------------------------------------------------|
B-------------------------------------------------------------------------|
G-------------------------------------------------------------------------|
D-99999999----------99999999----------99999999-------------------99999999-|
A-77777777-99999999-77777777-77777777-77777777-77777777-99999999-77777777-|
E----------77777777----------55555555----------55555555-77777777----------|

e-------------------------------------------------------------------------|
B-------------------------------------------------------------------------|
G-------------------------------------------------------------------------|
D-99999999----------99999999----------99999999-------------------99999999-|
A-77777777-99999999-77777777-77777777-77777777-77777777-99999999-77777777-|
E----------77777777----------55555555----------55555555-77777777----------|

Chorus Guitars 1&2
e-------------------------------------------------|
B-------------------------------------------------|
G-------------------------------------------------|
D------------------999999-77-66666666-------------|
A-7777777777777777-777777-55-44444444-2222-7777-9-|
E-5555555555555555--------------------0000-5555-7-|
[ Tab from: http://www.guitartabs.cc/tabs/n/no_use_for_a_name/fairy_tale_of_new_york_tab_ver_2.html ]
Solo Guitar 1
e---------------------7-9-7-----------------7-9-7-------------------4-7-------------|
B-5-7-9-7-5-7-9-7-5---------9-5-7-9-10-12-7-------9-5-7-9-7-5-----5-----9-5-7-9-7-5-|
G-------------------6-----------------------------------------6-4-------------------|
D-----------------------------------------------------------------------------------|
A-----------------------------------------------------------------------------------|
E-----------------------------------------------------------------------------------|

During Solo guitar 2
e--------------------------------------------------------------------------|
B--------------------------------------------------------------------------|
G--------------------------------------------------------------------------|
D-99999999----------66666666----------99999999-----------99999999----------|
A-77777777-99999999-44444444-77777777-77777777--99999999-77777777-99999999-|
E----------77777777----------55555555-----------77777777----------77777777-|

e------------------------------------------------------------------------|
B------------------------------------------------------------------------|
G------------------------------------------------------------------------|
D-99999999-66666666-99999999----------9999999999999999----------99999999-|
A-77777777-44444444-77777777-77777777-7777777777777777-99999999-77777777-|
E----------------------------55555555------------------77777777----------|

Verse Guitars 1&2
e-------------------------------------------------------------------------|
B-------------------------------------------------------------------------|
G-------------------------------------------------------------------------|
D-99999999----------55555555----------99999999-------------------99999999-|
A-77777777-99999999-77777777-77777777-77777777-77777777-99999999-77777777-|
E----------77777777----------55555555----------55555555-77777777----------|

e-------------------------------------------------------------------------|
B-------------------------------------------------------------------------|
G-------------------------------------------------------------------------|
D-99999999----------55555555----------99999999-------------------99999999-|
A-77777777-99999999-77777777-77777777-77777777-77777777-99999999-77777777-|
E----------77777777----------55555555----------55555555-77777777----------|

Chorus Guitars 1&2
e-------------------------------------------------|
B-------------------------------------------------|
G-------------------------------------------------|
D------------------999999-77-66666666-------------|
A-7777777777777777-777777-55-44444444-2222-7777-9-|
E-5555555555555555--------------------0000-5555-7-|


Solo Guitar 1
e-------------------------------------|
B---5-4-4-2-2-2-4-5-------------------|
G-4-----------------4-1-1---2-1-------|
D-------------------------2-----4-2-1-|
A-------------------------------------|
E-------------------------------------|

e-0000000000000000-0000000000000000-0000000000000000--0-0-00000000000000-|
B-----------------------------------------------------101099777755555555-|
G------------------------------------------------------------------------|
D------------------------------------------------------------------------|
A------------------------------------------------------------------------|
E------------------------------------------------------------------------|

During Solo guitar 2
e----------------------------------------|
B----------------------------------------|
G----------------------------------------|
D-9~~~~~~~-----------9~~~~~~~~-----------|
A-7~~~~~~~-7~~~~~~~~-7~~~~~~~~-9~~~~~~~~-|
E----------5~~~~~~~~-----------7~~~~~~~~-|

e----------------------------------------------------------------------|
B----------------------------------------------------------------------|
G----------------------------------------------------------------------|
D-9999999999999999------------------9999999999999999-------------------|
A-7777777777777777-7777777777777777-7777777777777777-9999-222222222222-|
E------------------5555555555555555------------------7777-000000000000-|

Chorus Guitars 1&2
e-------------------------------------------------|
B-------------------------------------------------|
G-------------------------------------------------|
D------------------999999-77-66666666-------------|
A-7777777777777777-777777-55-44444444-2222-7777-9-|
E-5555555555555555--------------------0000-5555-7-|

Outro Guitars 1&2
e----------------------|
B----------------------|
G----------------------|
D-99999999-7/999-7/999-|
A-77777777-5/777-5/777-|
E----------------------|

e-----------------------------------------------------|
B-----------------------------------------------------|
G-----------------------------------------------------|
D------------------999999-77-66666666---------------9-|
A-7777777777777777-777777-55-44444444-2222-7777-9~~-7-|
E-5555555555555555--------------------0000-5555-7~~---|
Comments