No Use For A Name - Daily Grind Chords & Tabs

 

Daily Grind Chords & Tabs

No Use For A Name Chords & Tabs

Version: 1 Type: Tab 0 ratings
1 star 2 stars 3 stars 4 stars 5 stars
comments

Daily Grind Tab

   
----------------------------------------------------------------------------
		     Daily Grind - NUFAN
----------------------------------------------------------------------------
Tabbed by: jd
Email:j_________d@hotmail.com (9underscores)

Tuning: standard

intro

e|----(repeat 7x for intro)-----------------(then pick this)-------------|
B|------------------------------------------------------12-12-12-12-12---|
G|------9-11-9--12-11-9-11--9--------------------9-11-9------------------|
D|-9-12-----------------------12------------9-12-------------------------|
A|-----------------------------------------------------------------------|
E|-----------------------------------------------------------------------|

    verse (use palm muting)
e|---------------------------------|
B|---------------------------------|
G|-9-----------9-------------------|
D|-9--5--7--9--9--5--7--10---------|
A|-7--5--7--9--7--5--7--10---------|
E|----3--5--7-----3--5--8----------|

    pre chorus
e|-------------------------------------------------------------------------|
B|------------------------------(p.m.)--------------------(p.m.)-----------|
G|-------------------------------------9-9-9-9-7-7--------------9-9-9-9-7-7|
D|-10----------------------------2--2--9-9-9-9-7-7-10------2-2--9-9-9-9-7-7|
A|-10----------------------------2--2--7-7-7-7-5-5-10------2-2--7-7-7-7-5-5|
E|-8-----------------------------0--0--------------8-------0-0-------------|
   on the other side of town....                   people..
[ Tab from: http://www.guitartabs.cc/tabs/n/no_use_for_a_name/daily_grind_tab.html ]
   chorus
e|---------------------------------------------------------|
B|---------------------------------------------------------|
G|---------------------------------------------------------|
D|-9---------4-------5-------9------4--------5-------------|
A|-9---------4-------5-------9------4--------5-------------|
E|-7---------2-------3-------7------2--------3-------------|
   look..    far..   find..  trade..gy daily grind

repeat intro 4x
repeat verse
repeat prechorus
repeat chorus

e|-------------------------------------------------|
B|-------------------------------------------------|
G|-------------------------------------------------|
D|-11-------6------7--------11-----6--------7------|
A|-11-------6------7--------11-----6--------7------|
E|-9--------4------5--------9------4--------5------|

     outro
e|-----------------------------------------------------------------|
B|-----------------------------------------------------------------|
G|-----------------------------------------------------------------|
D|-7---4-5----7-7-9-10---10-10-7-7-9-9-5-5-7-7-4-4-5-5-2-2---------|
A|-7---2-3----5-5-7-8----8--8--5-5-7-7-3-3-5-5-2-2-3-3-0-0---------|
E|-5---------------------------------------------------------------|

    outro con't
e|-----------------------------------------------------------|
B|-----------------------------------------------------------|
G|-2----------------------------------------------2----------|
D|-2---4-5---7-7-9-10---10-10-7-7-9-9-5-5-7-7-4-4-2----------|
A|-0---2-3---5-5-7-8----8--8--5-5-7-7-3-3-5-5-2-2-0----------|
E|-----------------------------------------------------------|


| (p.m.) palm muting
| /  slide up
| \  slide down
| h  hammer-on
| p  pull-off
| ~  vibrato
| +  harmonic
| x  Mute note
============================================================================
Comments