No Use For A Name - Coming Too Close Chords & Tabs

 

Coming Too Close Chords & Tabs

No Use For A Name Chords & Tabs

Version: 1 Type: Tab 0 ratings
1 star 2 stars 3 stars 4 stars 5 stars
comments

Coming Too Close Tab

   
A=lead guitar
B=background guitar   
A&B=both   
C=bonus-guitar

verse #A&B X2 m=palm-mute
E|---mmm-----mm--mm--mmm-----mm--mm--mmm-----mm--mm--mmm-----mm--mm----|
B|---------------------------------------------------------------------|
G|---------------------------------------------------------------------|
D|---2222----222-----3333----333-222-3333----333-222-------------333---|
A|---3333----333-222-3333----333-222-5555----555-333-2222----222-333---|
E|---------------333-1111----111-000-----------------3333----333-111---|

# verse-part2 #A&B   (Just as it starts to...)   m=palm-mute *=play 7X
E|---mmm-----mm--mm--mmm-----mm--mm--mmm-----mm--mm--------------------|
B|---------------------------------------------------------------------|
G|----------------------------------------------------*-------*--------|
D|---2222----222-222-3333----333-333-2222----222-222-5-------5---------|
A|---2222----222-222-3333----333-333-3333----333-333-5-------5---------|
E|---0000----000-000-1111----111-111-----------------3-------3---------|

# chorus #A&B   *=play 7X
E|---------------------------------------------------------------------------|
B|------------*---*-----------*---*---*---*---*---*--------------------------|
G|----*---*--5---5----*---*--9---9--10--10---5---5----*---*---*---*---*------|
D|---3---3---5---5---5---5---9---9--10--10---5---5---5---5---8---7---3---5---|
A|---3---3---3---3---5---5---7---7---8---8---3---3---5---5---8---7---3---5---|
E|---1---1-----------3---3---------------------------3---3---6---5---1---3---|

Then play A&BverseA&BX2, A&Bverse-part2A&B and A&BchorusA&B.

# bridge #A&B *=play 3X
E|---/-------------palm-muted-----------------------\----------------|
B|----------------------------------------------------------------*--|
G|----------------------------------------------------*---*---*--7---|
D|---------------------------------------------------7---5---3---7---|
A|----3-3-3-3-3-3-3-3-5-5-5-5-5-5-5-5-7-7-7-7-7-7-7-77---5---3---5---|
E|---1-1-1-1-1-1-1-1-3-3-3-3-3-3-3-3-4-4-4-4-4-4-4-4-5---3---1-------|
[ Tab from: http://www.guitartabs.cc/tabs/n/no_use_for_a_name/coming_too_close_tab.html ]
# solo #A   *=play 9-11X  #=play 3X  b=bend one step
E|-----------------------------------*------------#--*---------------|
B|----*-----------#--#--------------6------------5--8----------------|
G|---9-----------7--5------------5b----------------------------------|
D|---------------------------------3---------------------------------|
A|-------------------------------------------------------------------|
E|-------------------------------------------------------------------|
# solo-bg #B   *=play 9-11X  #=play 3X
E|-------------------------------------------------------------------|
B|----*------------------------------*------------#------------------|
G|---5------------#--*------------#-7------------5---*---------------|
D|---5-----------5--3------------2--7------------5--5----------------|
A|---3-----------5--3------------2--5------------3--5----------------|
E|---------------3--1------------0------------------3----------------|
# solo #C   *=play 9-11X  #=play 3X  b=bend one step  e=bend half step
E|-------------------*----------e----*-----------#---*---------------|
B|--15b---------10b10----------12--13b----------13-12----------------|
G|-------------------------------10----------------------------------|
D|-------------------------------------------------------------------|
A|-------------------------------------------------------------------|
E|-------------------------------------------------------------------|

Then play A&BchorusA&B and A&BverseA&B.

# outro #A  !not in a same scale asB!  *=play 4X  m=palm-mute       >
E|-------------------m-m-----m-m-----m-m-m-----------m-m-----m-m----->
B|----*-------------------------------------------------------------->
G|---9-------------------912----1214------14------------1412----1210->
D|------------------------------------------------------------------->
A|---7---------------7-7-7101010101212121212--------12121210101010-8->
E|------------------------------------------------------------------->
>outroA
>---m-m-m-----------m-m-----m-m-----m-m-m-----------m-m-----m-m-------|
>---------------------------------------------------------------------|
>--------10------------10-9-----912------12------------1210----10-9---|
>---------------------------------------------------------------------|
>---8-8-8-8---------8-8-8-7-7-7-71010101010--------101010-8-8-8-8-7---|
>---------------------------------------------------------------------|
# outro #B  *=play 4X
E|-----------mm--mm--mmm-----mm--mm--mmm-----mm--mm--mmm-----mm--mm----|
B|---------------------------------------------------------------------|
G|----*----------------------------------------------------------------|
D|---2------\222-----3333----333-222-3333----333-222-------------333---|
A|---3------\333-222-3333----333-222-5555----555-333-2222----222-333---|
E|---------------333-1111----111-000-----------------3333----333-111---|

# end #A
E|--------------------|
B|--------------------|
G|---9--9--9--9---\\\-|
D|--------------------|
A|---7--7--7--7---\\\-|
E|--------------------|
# end #B
E|--------------------|
B|--------------------|
G|--------------------|
D|--10-10-10-10---\\\-|
A|--10-10-10-10---\\\-|
E|---8--8--8--8---\\\-|
Comments