No Use For A Name - Chasing Rainbows Chords & Tabs

 

Chasing Rainbows Chords & Tabs

No Use For A Name Chords & Tabs

Version: 1 Type: Bass Tab 0 ratings
1 star 2 stars 3 stars 4 stars 5 stars
comments

Chasing Rainbows Bass Tab

-------------------------------------------------------------------------------
		CHASING RAINBOWS - No Use For A Name	
-------------------------------------------------------------------------------
By:David Allar (joker89-@excite.com

Intro:
G|----------------------------------------------------------------------------|
D|----------------------------------------------------------------------------|
A|-3>------------------3>-------------5-3-0-----------------------------------|
E|------3>---5>---1>--------3>---5>-------------------------------------------|

Verse: 		    x3
G|--------------------|-------------------------------------------------------|
D|--------------------|-------------------------------------------------------|
A|-3>-----------------|---3>--------------------------------------------------|
E|------3>---5>---1>--|--------3>---1>---3~-----------------------------------|

Chorus: 1
G|----------------------------------------------------------------------------|
D|----------------------------------------------------------------------------|
A|----------------3>-------------------------------------------3>-------------|
E|-5>---1>---3>--------3>---5>---3>---1>---3>---5>---1>---3>-------3>---------|
				      
G|----------------------------------------------------------------------------|
D|----------------------------------------------------------------------------|
A|-----------5>---3>------------------5>---3>------53-------------------------|
E|-5>---3>-------------3>---1>---3>-------------------------------------------|
[ Tab from: http://www.guitartabs.cc/tabs/n/no_use_for_a_name/chasing_rainbows_btab.html ]
Verse		    x3
G|--------------------|-------------------------------------------------------|
D|--------------------|-------------------------------------------------------|
A|-3>-----------------|---3>--------------------------------------------------|
E|------3>---5>---1>--|--------3>---1>---3~-----------------------------------|

Chorus: 2
G|----------------------------------------------------------------------------|
D|----------------------------------------------------------------------------|
A|----------------3>-------------------------------------------3>-------------|
E|-5>---1>---3>--------3>---5>---3>---1>---3>---5>---1>---3>-------3>---------|

G|----------------------------------------------------------------------------|
D|----------------------------------------------------------------------------|
A|-----------5>---3>------------------3>-------------5>---3>------------------|
E|-5>---3>-------------3>---1>---3>--------5>---3>-------------3>---5>--------|

G|----------------------------------------------------------------------------|
D|----------------------------------------------------------------------------|
A|-3>---5>-------------3>-----------------------------------------------------|
E|-----------3>---1>--------3>---1>-------------------------------------------|

Outro:
G|----------------------------------------------------------------------------|
D|----------------------------------------------------------------------------|
A|---5~---3~----------3~------------------------------------------------------|
E|-------------3~---1---------------------------------------------------------|
Comments