No Te Va Gustar - Dejame Bailar Chords & Tabs

 

Dejame Bailar Chords & Tabs

No Te Va Gustar Chords & Tabs

Version: 1 Type: Tab 0 ratings
1 star 2 stars 3 stars 4 stars 5 stars
comments

Dejame Bailar Tab

No Te Va Gustar, Dejame Bailar.
 Tabbed by Juaco Flores, jvfpaco@hotmail.com.
  

No Te Va Gustar
Dejame Bailar
(Por Joaquin Flores)


La Letra no tiene tildes porque como me paso en No Era Cierto, no los acepta. Para saber el ritmo, vas a tener que escuchar la canción.
Por cualquier comentario mandame un mail a jvfpaco@hotmail.com



Intro (x2)
Dist.
                         
E ------------------------------------------------------------------
B ------------------------------------------------------------------
G ----4---7-9---7-4---7-9-------------------------------------------
D ----4---7-9---7-4---7-9-------------------------------------------
A ----2---5-7---5-2---5-7-------------------------------------------
E ------------------------------------------------------------------



Mientras que canta
[ Tab from: http://www.guitartabs.cc/tabs/n/no_te_va_gustar/dejame_bailar_tab.html ]
E --7--7--5--5--3--3------------------------------------------------
B --8--8--5--5--3--3------------------------------------------------
G --9--9--6--6--4--4------------------------------------------------
D ------------------------------------------------------------------
A ------------------------------------------------------------------
E ------------------------------------------------------------------


Ya lo se soy un iluso, Dejame Bailar
No molesto a nadie
No tengo palabras para darte es verdad
Pero no molesto a nadie
Dejame bailar con vos
No es tanto, no es tanto lo que pido
Dejame bailar con vos
Solo una vez, solo una vez

toca Intro x 2

Te lo llevaste lejos
Yo queria bailar, no molestaba a nadie
no tengo excusas para darte es verdad
Pero no molesto a nadie
Dejame bailar con vos
No es tanto, no es tanto lo que pido
Dejame bailar con vos
Solo una vez, solo una vez

Dejame bailar
Dejame bailar
Dejame bailar con vos
Dejame Bailar con vos

Dejame bailar con vos
No es tanto, no es tanto lo que pido
Dejame bailar por favor
Dejame bailar con vos
Solo una vez, solo una vez
Solo una vez, solo una vez

toca Intro x 2

y al final toca 

E -------------------------------------------------------------
B -------------------------------------------------------------
G --4--6--7--9--11-4--6--7--9-2-2-2-2-4------------------------
D --4--6--7--9--11-4--6--7--9-2-2-2-2-4------------------------
A --2--4--5--7--9--2--4--5--7-0-0-0-0-2------------------------
E -------------------------------------------------------------

 
:: Ultimate Guitar Archive :: 
http://www.ultimate-guitar.com 



Comments