No Regrets - Waiting For The Days Chords & Tabs

 

Waiting For The Days Chords & Tabs

No Regrets Chords & Tabs

Version: 1 Type: Tab 0 ratings
1 star 2 stars 3 stars 4 stars 5 stars
comments

Waiting For The Days Tab

Waiting For The Days
No Regrets

P= pull off


Intro
E|----0--------------------0----------------|
B|------1------1-1-0---------1------1-1-0---|
G|--2-----2-------------2------2------------| 4 times
D|--2-------2-----------0--------0----------|
A|------------------------------------------|
E|------------------------------------------|

Bridge
E|---------------------------------------------------|
B|---------1---------------1---------------1---------|
G|------2----2---2------2----2---2------0----0---0---|
D|----2---2----2------2---2----2------2---2----2-----|
A|--0---------------0---------------3----------------|
E|---------------------------------------------------|

E|------------------|
B|---------3--------|
G|------0----0---0--| Play 2 times thru 
D|----4---4----4----| only after the 1st intro
A|--5---------------|
E|------------------|
[ Tab from: http://www.guitartabs.cc/tabs/n/no_regrets/waiting_for_the_days_tab.html ]
Verse
E|--0-0-0-0-0--0-0-0-0-0--0-0-0-0-0--0-0-0-0-0---|
B|--1-1-1-1-0--1-1-1-1-0--0-0-1-1-0--0-0-3-3-0---|
G|--2-2-2-2-2--2-2-2-2-2--0-0-0-0-0--0-0-0-0-0---| 4 times
D|--2-2-2-2-2--2-2-2-2-2--2-2-2-2-2--4-4-4-4-4---|
A|--0-0-0-0-0--0-0-0-0-0--3-3-3-3-3--5-5-5-5-5---|
E|-----------------------------------------------|
    1 2 3 & 4  1 2 3 & 4  1 2 3 & 4  1 2 3 & 4

Solo
E|------------------------------------------------------|
B|------------------------------------------------------|
G|--5-4---5-4---5-7-9-5-7-9-9-5-7-9-5-7-2-4-5-2-4-5p4---|
D|------5-----5---------------------------------------5-|
A|------------------------------------------------------|
E|------------------------------------------------------|

E|------------------------------------------------------|
B|------------------------------------------------------|
G|--4-5p4---4-5p4---4-5p4---4-5p4---4-5p4---4-5p4-------|
D|--------5-------3-------3-------2-------2-------------|
A|------------------------------------------------------|
E|------------------------------------------------------|

intro 
bridge
verse
intro
verse
solo
verse x2
intro

Comments