No One - Down On Me Chords & Tabs

 

Down On Me Chords & Tabs

No One Chords & Tabs

Version: 1 Type: Tab 0 ratings
1 star 2 stars 3 stars 4 stars 5 stars
comments

Down On Me Tab

No One - Down On Me	
Tabbed By: Brian Washington(bino)	
E-mail: rvd3485@home.com	

Intro/Chorus
D|-------------------------------------------
A|-------------------------------------------
F|-------------------------------------------
C|-------------------------------------------
G|-------------------------------------------
C|-0-0-0h1p0--0-0-0h1p0--0-0-0h1p0--3-0-3-0-3

[ Tab from: http://www.guitartabs.cc/tabs/n/no_one/down_on_me_tab.html ]
Verse
D|-----------------           D|------------------                    
A|-----------------           A|------------------
F|--7/8------------ 4th time: F|--7/8--8/6-------- Then play it over again
C|--x/x------------           C|--x/x--x/x-------- without the palm muting
G|--5/6------------           G|--5/6--6/4--------
C|------0-0-0-0-0-0           C|------------------
p.m.    . . . . . .


Pre-Chorus
D|-----------------
A|-----------------
F|--7---8--6--5----  
C|--x---x--x--x----  Listen to cd for rhythm.
G|--5---6--4--3----
C|-----------------


Bridge
D|------------------------------
A|------------------------------
F|------------------------------
C|------------------------------  Not sure about this part.
G|------------------------------
C|--6-5-0-5-6-0-6-5--0-0-0-0-0-0

Comments