No One - Breathe Chords & Tabs

 

Breathe Chords & Tabs

No One Chords & Tabs

Version: 2 Type: Tab 0 ratings
1 star 2 stars 3 stars 4 stars 5 stars
comments

Breathe Tab

No One - Breathe	
Tabbed by: Brian Washington
E-mail: rvd3485@home.com	

This is only my second tab ever, but it sounds pretty accurate to me.
The tuning from low to high is: C, G, C, F, A, D


Intro
Listen to cd for rhythm
D|---------------------
A|---------------------
F|---------------------  
C|--0-0-0-0-1-0-0-0-1-0 x11
G|---------------------
C|---------------------
p.m . . . . . . . . . .


Fill
D|------------------------
A|------------------------
F|--7-7-7-7-8-7--7-7-7-8-7
C|--x-x-x-x-x-x--x-x-x-x-x
G|--5-5-5-5/6/5--5-5-5/6/5
C|------------------------

[ Tab from: http://www.guitartabs.cc/tabs/n/no_one/breathe_tab_ver_2.html ]
Chorus 
D|------------------------
A|------------------------
F|------------------------
C|------------------------ x8
G|--0-0-0-0-1-0-0-0-0-1-0-
C|--0-0-0-0-1-0-0-0-0-1-0-


Fill 2
D|---------------------------------------------
A|---------------------------------------------
F|--7----------------------7-7-----------------
C|--x----------------------x-x-----------------
G|--5----------------------5-5-----------------  
C|-----6--5--3-0-5-0-3-0-------6--5--3-0-5-0-3-


Bridge
D|-----------------------
A|-------8-------9-------
F|-------x-------x-------  Play the first ocatave a few times
C|-------6-------7-------  then switch to the second one.
G|0-0-0------------------  
C|0-0-0------------------
Comments