No One - Breathe Chords & Tabs

 

Breathe Chords & Tabs

No One Chords & Tabs

Version: 1 Type: Tab 0 ratings
1 star 2 stars 3 stars 4 stars 5 stars
comments

Breathe Tab

No One - Breathe	
Tabbed by Brian Washington(bino)
E-mail: rvd3485@home.com	

This is only my second tab ever, but it sounds pretty accurate to me.
The tuning from low to high is: B, F#, B, E, G#, C#


Intro
Listen to cd for rhythm

C#|---------------------
G#|---------------------
E |---------------------  
B |---------------------  x11
F#|---------------------
B |--0-0-0-0-1-0-0-0-1-0
p.m. . . . . . . . . . .


Fill
C#|------------------------
G#|------------------------
E |--7-7-7-7-8-7--7-7-7-8-7
B |--x-x-x-x-x-x--x-x-x-x-x
F#|--5-5-5-5/6/5--5-5-5/6/5
B |------------------------

[ Tab from: http://www.guitartabs.cc/tabs/n/no_one/breathe_tab.html ]
Chorus 
C#|------------------------
G#|------------------------
E |------------------------
B |------------------------ x8
F#|--0-0-0-0-1-0-0-0-0-1-0-
B |--0-0-0-0-1-0-0-0-0-1-0-


Fill 2
C#|-------------------------------------------
G#|-------------------------------------------
E |--9----------------------9-9---------------
B |--x----------------------x-x---------------
F#|--7----------------------7-7---------------  
B |-----8--7--5-0-7-0-5-0-------8--7--5-0-7-5-


Bridge
C#|-----------------------
G#|-------9------10-------
E |-------x-------x-------  Play the first ocatave a few times
B |-------7-------8-------  then switch to the second one.
F#|0-0-0------------------  
B |0-0-0------------------

Comments