No Mayers 50 - Girlfriend Chords & Tabs

 

Girlfriend Chords & Tabs

No Mayers 50 Chords & Tabs

Version: 1 Type: Tab

Girlfriend Tab

   
#----------------------------------PLEASE NOTE---------------------------------#
#This file is the author's own work and represents their interpretation of the #
#song. You may only use this file for private study, scholarship, or research. #
#------------------------------------------------------------------------------#

Girlfriend by NO MAYERS 50 from the record "Hopeless Romantic"


Intro/Verse 1:


  B
|-----------------|-----------------|-----------------|-------------------|
|-----------------|-----------------|-----------------|-------------------|
|-----------------|-----------------|-----------------|-------------------|
|-----------------|-----------------|-----------------|-------------------|
|-2-2-2-2-2-2-2-2-|-2-2-2-2-2-2-2-2-|-2-2-2-2-2-2-2-2-|-2-2-2-2-2-2-2-2---|
|-----------------|-----------------|-----------------|-------------------|
 |------------------------------------PM----------------------------------|

          Sorry girl, I know it’s late, there’s one thing that just can’t ...

  E				      C#	        F#		 B
|-----------------|-----------------|-----------------|--------------------|
|-----------------|-----------------|-----------------|--------------------|
|-----------------|-----------------|-9-9-9-9-9-9-9-9-|-6-6-6-6-6-6-6-6--4-|
|-----------------|-----------------|-----------------|------------------4-|
|-----------------|-----------------|-7-7-7-7-7-7-7-7-|-4-4-4-4-4-4-4-4--2-|
|-0-0-0-0-0-0-0-0-|-0-0-0-0-0-0-0-0-|-----------------|--------------------|

 wait,    there’s a story that you    need to know


  B				  B   B
|-----------------|-----------------|-----------------|-------------------|
|-----------------|-----------------|-----------------|-------------------|
|-4---------------|---------------4-|-4---------------|-------------------|
|-4---------------|---------------4-|-4---------------|-----------------4-|
|-2---------------|---------------2-|-2---------------|-----------------4-|
|-----------------|-----------------|-----------------|-----------------2-|

    I saw your boyfriend last                with another girl


  E				      C#		F#
|-----------------|-----------------|-----------------|-------------------|
|-----------------|-----------------|-----------------|-------------------|
|-----------------|-----------------|-6-6-6-6-6-6-6-6-|-------------------|
|-2---------------|-----------------|-6-6-6-6-6-6-6-6-|-4-4-4-4-4-4-4-4---|
|-2---------------|-----------------|-4-4-4-4-4-4-4-4-|-4-4-4-4-4-4-4-4---|
|-0---0-0-0-0-0-0-|-0-0-0-0-0-0-0-0-|-----------------|-2-4-4-4-4-4-4-4---|
     |-----------PM-------------------------------------------------------|

        they were holding hands and   swearing 		love 	     for ..

  E				      F#
|-----------------|-----------------|-----------------|-------------------|
|-----------------|-----------------|-----------------|-------------------|
|-----------------|-----------------|-----------------|-------------------|
|-2---------------|-----------------|-----------------|-------------------|
|-2---------------|-----------------|-----------------|-------------------|
|-0---0-0-0-0-0-0-|-0-0-0-0-0-0-0-0-|-2-2-2-2-2-2-2-2-|-2-2-2-2-2-2-2-2---|
     |-----------------------------PM-------------------------------------|

..ever	         I know this is       hard   for   you 		but I swear


  B		    B/A#		 G#
|-----------------|-----------------|-----------------|-----------------|
|-----------------|-----------------|-----------------|-----------------|
|-----------------|-----------------|-----------------|-----------------|
|-4-4-4-4-4-4-4-4-|-4-4-4-4-4-4-4-4-|-----6-----------|-----------------|
|-2-2-2-2-2-2-2-2-|-1-1-1-1-1-1-1-1-|-----6-----------|-----------------|
|-----------------|-----------------|-----4-----------|-----------------|


  I will be there   ever    and       ev--er 		if you just gave ...


  E		    		      F#
|-----------------|-----------------|-----------------|-------------------|
|-----------------|-----------------|-----------------|-------------------|
|-----------------|-----------------|-----------------|-------------------|
|-2---------------|-----------------|-4-4-4-4-4-4-4-4-|-4-----------------|
|-2---------------|-----------------|-4-4-4-4-4-4-4-4-|-4-----------------|
|-0-0-0-0-0-0-0-0-|-0-0-0-0-0-0-0-0-|-2-2-2-2-2-2-2-2-|-2-----------------|
 |---------------PM-------------------------------------------------------|

     me a chance to --- o 		      prove ....        now she’s my

Chorus:

[ Tab from: http://www.guitartabs.cc/tabs/n/no_mayers_50/girlfriend_tab.html ]
    E		      F#		E
||------------------|-----------------|-----------------|-----------------|
||------------------|-----------------|-----------------|-----------------|
||.-4-4-------------|-----------------|-----------------|-----------------|
||.-4-4-------------|-4-4-------------|-2-2-2-2-2-2-2-2-|-2-2-2-2-2-2-2-2-|
||--2-2-------------|-4-4-------------|-2-2-2-2-2-2-2-2-|-2-2-2-2-2-2-2-2-|
||------------------|-2-2-------------|-0-0-0-0-0-0-0-0-|-0-0-0-0-0-0-0-0-|

||: girlfriend and     I take     her out          when   ever   I      want
   your friend cause   I figured      out          when   ever   I      want

                                      _ 1 ________________________  	    _ 2 ___________________
                                     |               			   |
				     |					   |
   C#				     | F#				   | F#
 |-----------------|-----------------|-----------------|------------------||-----------------|------------------|
 |-----------------|-----------------|-----------------|------------------||-----------------|------------------|
 |-6-6-6-6-6-6-6-6-|-6-6-6-6-6-6-6-6-|-----------------|-----------------.||-----------------|------------------|
 |-6-6-6-6-6-6-6-6-|-6-6-6-6-6-6-6-6-|-4-4-4-4-4-4-4-4-|-4-4-4-4-4-4-4-4-.||-4-4-4-4-4-4-4-4-|-4----------------|
 |-4-4-4-4-4-4-4-4-|-4-4-4-4-4-4-4-4-|-4-4-4-4-4-4-4-4-|-4-4-4-4-4-4-4-4--||-4-4-4-4-4-4-4-4-|-4----------------|
 |-----------------|-----------------|-2-2-2-2-2-2-2-2-|-2-2-2-2-2-2-2-2--||-2-2-2-2-2-2-2-2-|-2----------------|

                  she’ll be there with me                  she’s no more :||
                  she’ll make me feel 					   ...fine 	      now that she’s mine .....


Verse 2:


  B
|-----------------|-----------------|-----------------|-----------------|
|-4-------4-------|-5-------5-------|-4-------4-------|-5-------5-------|
|-----4-------4---|-----4-------4---|-----4-------4---|-----4-------4---|
|-----------------|-----------------|-----------------|-----------------|
|-----------------|-----------------|-----------------|-----------------|
|-----------------|-----------------|-----------------|-----------------|


 I’m sorry girl, I know it’s late, not in time is what you hate

  E				      C#		F#
|-----------------|-----------------|-----------------|--------------------|
|-4-------4-------|-5-------5-------|-----------------|--------------------|
|-----4-------4---|-----4-------4---|-9-9-9-9-9-9-9-9-|-6-6-6-6-6-6-6-6--4-|
|-----------------|-----------------|-----------------|--------------------|
|-----------------|-----------------|-7-7-7-7-7-7-7-7-|-4-4-4-4-4-4-4-4--2-|
|-----------------|-----------------|-----------------|--------------------|

 there were several problems I had to solve  ( ... continue as in verse 1!!)


first my mother called me, then she came around
finally then my keys were no where to be found
I know this is hard to take but I say
I will become better and better
if you just gave me a chance to prove ....


Chorus:


now she’s my girlfriend and I take her out
whenever I want she’ll be there with me
she’s no more your friend cause I figured out
whenever I want she’ll make me feel fine
now that she’s mine .....


Bridge:


   E				      F#
|------------------|-----------------|-----------------|--------------------|
|------------------|-----------------|-----------------|--------------------|
|.-----------------|-----------------|-----------------|--------------------|
|.-2---------------|-----------------|-----------------|--------------------|
|--2---------------|-----------------|-----------------|--------------------|
|--0---0-0-0-0-0-0-|-0-0-0-0-0-0-0-0-|-2-2-2-2-2-2-2-2-|-2-2-2-2-2-2-2-2----|
     |-----------------------------PM---------------------------------------|

She’s the one I swear I’ll always be there  She’s the one I swear I’ll always care for
she’s so right, she’s so right I’m proud now that she’s mine


||:B		|F#		|E		|F#		:||


Chorus:

now she’s my girlfriend and I take her out
whenever I want she’ll be there with me
she’s no more your friend cause I figured out
whenever I want she’ll make me feel fine
now that she’s mine .....


Outro:

Guitar:


  B7/9
|-----------------|-10---10---------|-----------------|-----------------|-----------7----------|
|-----7-----7-----|-10---10---------|-----7-----7-----|-7---6---5---4---|-0---------10---------|
|-----8-----8-----|-----------------|-----8-----8-----|-----------------|-----------8----------|
|-----------------|-----------------|-----------------|-----------------|-----------9----------|
|-----------------|-----------------|-----------------|-----------------|-----------9----------|
|-7---------------|-----------------|-7---------------|-----------------|-----------7----------|

  .   .   .   .    .    .   .   .

Bass:

|-----------------|-----------------|-----------------|-----------------|-----------4-----|
|-----1---2---4---|-2---1---2---1---|-----1---2---4---|-2---1---2---1---|-----------4-----|
|-2---------------|-----------------|-2---------------|-----------------|-2---------------|
|-----------------|-----------------|-----------------|-----------------|-----------------|


... Hey Baby ......