No Kompromyze - The New Kenny Chords & Tabs

 

The New Kenny Chords & Tabs

No Kompromyze Chords & Tabs

Version: 1 Type: Tab 0 ratings
1 star 2 stars 3 stars 4 stars 5 stars
comments

The New Kenny Tab

hi im the guitarest in the band no komp i messed up on the last one so heres the right version

if you wanna find out about no kompromyze email us at nokompromyze@yahoo.com
[ Tab from: http://www.guitartabs.cc/tabs/n/no_kompromyze/the_new_kenny_tab.html ]
main verse
----------guitar-1---------------------------------------------
-------------------------------------------4x------------
-------------------------------------------------------
--7--9-1010-9--777-99-10-------------------------------
--7--9-1010-9--777-99-10-------------------------------
--5--7--88--7--555-77-8--------------------------------
-
-
-
-----guitar-2-------------------------------------------
-------------------------------------------------------
---------all-power-cords-------------------------------
-------------------------------------------------------
-------------------------------------------------------
--5-0-330-030330---------------------------------------
-
-
-chorus
--guitar1-----------------------------------------------------
-------------------------------------------------------
-------------------------------------------------------
------------all power cords-------------------------------------------
-------------------------------------------------------
-5-33-77-55-77------------------------------------------------------
-
-
-
-guitar 2same throught the song
-
-
-main verse again
-
-
-chorus again
-
-
-end guitar 2 guitar1 sileint
-------------------------------------------------------
-------------------------------------------------------
-------------------------------------------------------
-------------------------------------------------------
-------------------------------------------------------
--50-330----------------------------------------------------
slowly
Comments