No Harm Done - Moving On Chords & Tabs

 

Moving On Chords & Tabs

No Harm Done Chords & Tabs

Version: 1 Type: Tab 0 ratings
1 star 2 stars 3 stars 4 stars 5 stars
comments

Moving On Tab

moving on by no harm done
INTRO-x-4                          verse-x-6
---------------------------------  --------------------------------
---------------------------------  ---6-7-6----6-7-6-7-7-----------
---------------------------------  -7--------7-----------7---------
---4-5-4---4-5-4---4-5-4---4-5-4-  --------------------------------
-5-------3-------2-------0-------  --------------------------------
---------------------------------  --------------------------------
solo-x-4
-------------------------------------------
-------------------------------------------
-------------9--------------------9--------
----------------12--------------------12---
-9---10--12----------9----10--12-----------
-------------------------------------------
[ Tab from: http://www.guitartabs.cc/tabs/n/no_harm_done/moving_on_tab.html ]
Comments