No Fun At All - Strong And Smart Chords & Tabs

 

Strong And Smart Chords & Tabs

No Fun At All Chords & Tabs

Version: 2 Type: Bass Tab 0 ratings
1 star 2 stars 3 stars 4 stars 5 stars
comments

Strong And Smart Bass Tab

Song: STroNG anD smaRT
Band:  No FuN AT aLL
Album:  NO STraiGht anGELs
tabbed by:jUSTINsLATER   punkdork@hotmail.com

InTRO
G:---------------------------------------------------------------
D:---------------------------------------------------------------
A:--8888-7-5---7-5----------------------------------------
E:-----------------8-6-5-6666-8-6-5555-666-8---------------------

VERsE
G:---------------------------------------------------------------
D:---------------------------------------------------------------
A:--55------55------55------888-888-888-888-------------------------
E:-----666-----666-----666------------------------------------
[ Tab from: http://www.guitartabs.cc/tabs/n/no_fun_at_all/strong_and_smart_btab_ver_2.html ]
PART ThAT conNeCTS VERsE to ChoRus
G:---------------------------------------------------------------
D:---------------------------------------------------------------
A:---------------------------------------------------------------
E:-----6>------8>----------------------------------------------------

ChORus
G:---------------------------------------------------------------
D:---------------------------------------------------------------
A:--555--------888--------------------------------------------
E:-------666---------888-------------------------------------------

VERy lAST pARt of ChorUS
G:---------------------------------------------------------------
D:---------------------------------------------------------------
A:---------------------------------------------------------------
E:-----5>--66--888------------------------------------------------


ThaT's IT SmaRT GuY
http://www.angelfire.com/nj/kickedintheballs
Comments