No Fun At All - Out Of Bounds Chords & Tabs

 

Out Of Bounds Chords & Tabs

No Fun At All Chords & Tabs

Version: 2 Type: Bass Tab 0 ratings
1 star 2 stars 3 stars 4 stars 5 stars
comments

Out Of Bounds Bass Tab

Song: out of bouds
Band: No fun at all
Album: ...the ''Cheap chop '' compilation
tabbed by: Carlos Pino

    intro               x3
G:---------------------------------------------------------------
D:---------------------------------------------------------------
A:------------------------5-5-5-5-5-5------------------------
E:-6--8-8--2--4-4- ------------------------------------------

    verse          x3
G:---------------------------------------------------------------
D:---------------------------------------------------------------
A:---------------------6-6-6-6-6-6---------------------------
E:-6--8-8--2-4-4-------------------6-6-6-6-6-6----------
[ Tab from: http://www.guitartabs.cc/tabs/n/no_fun_at_all/out_of_bounds_btab_ver_2.html ]
    before chorus
G:---------------------------------------------------------------
D:---------------------------------------------------------------
A:------------3-3-3------------3-3-3-----------3-3-3-----------
E:-4-4-4-4---------4-4-4-4---------4-4-4-4---------6-6-6-6

   chorus
G:---------------------------------------------------------------
D:---------------------------------------------------------------
A:-3-3-3---------6-6-6-6-6-6--3-3-3----------6-6-6-6-6-6------------------3-3-3-3-3-3-6-6-6-6-6-6-6-6-6-6-6-6
E:---------4-4-4---------------------------4-4-4------------------8-8-8-8-8-8---------

G:---------------------------------------------------------------
D:---------------------------------------------------------------
A:--8-8-8-8-8-8-8-8-8-8-8-8-----------------------------
E:---------------------------------------------------------------

    bridge              x2
G:---------------------------------------------------------------
D:---------------------------------------------------------------
A:--1-3-3-------------------------------------------------------------
E:----------2-2--4-4-4--8-6-4--6-6-6-6-6-6-6-4-4-4-4-4-4-4-3-3-3-3-3-3-3





Comments