No Fun At All - Master Celebrator Chords & Tabs

 

Master Celebrator Chords & Tabs

No Fun At All Chords & Tabs

Version: 2 Type: Bass Tab 0 ratings
1 star 2 stars 3 stars 4 stars 5 stars
comments

Master Celebrator Bass Tab

Song: Master Celebrator
Band: No Fun At All
Album:Out of Bounds
tabbed by: olya (olly_r@hotmail.com)

Intro:
---------------------------------------
--3333--------0000---------------------
--------3333---------3333--------------
---------------------------------------
x4

Verse:
Bow your head and...
---------------------------------------
--3-----------0------------------------
--------3------------3-----------------
---------------------------------------

No one gets ...
---------------------------------------
--3-----------0------------------------
--------3------------------------------
---------------------------------------

Raise your voice and...
--------5555---------------------------
--3333--------00------3333-------------
------------------11-------------------
---------------------------------------

Climb the mountain...
--------5555---------------------------
--3333--------00------3333-------------
------------------11-------------------
---------------------------------------
[ Tab from: http://www.guitartabs.cc/tabs/n/no_fun_at_all/master_celebrator_btab_ver_2.html ]
Chorus:
But I dunno, I dunno...
---------------------------------------
--000000--------333--------------------
----------111--------------------------
---------------------------------------

No one no one seems...
---------------------------------------
--000------333-------------------------
------111-------333--------------------
---------------------------------------
x4

  line...Well I'm fine.
---------------------------------------
-111111111111111333333333333333--------
---------------------------------------
---------------------------------------

Intro riff x2
Verse
Chorus

Bridge:
---------------------------------------
------------------------333-5-3-2------
-------33333---11111-------------------
-11111---------------------------------
x6
6th time
Looking back through the years...
---------------------------------------
---------------------------------------
-------33333---1-----------------------
-11111---------------------------------

Chorus

Outro:
Intro riff x2
then
---------------------------------------
--3-----------0------------------------
--------3------------3-----------------
---------------------------------------

---------------------------------------
--3-----------0------------------------
--------3------------------------------
---------------------------------------
                The End


oly


Comments