No Fun At All - Its All Up To You Chords & Tabs

 

Its All Up To You Chords & Tabs

No Fun At All Chords & Tabs

Version: 1 Type: Tab 0 ratings
1 star 2 stars 3 stars 4 stars 5 stars
comments

Its All Up To You Tab

   
Song:  It's all up to you 
Band: No fun at all
Album: (dont know)


Intro
e|--------------------------------------------------------------------|
B|--------------------------------------------------------------------|
G|-7777-5555-3333-5555--7777-5555-3333-5555---------------------------|
D|-7777-5555-3333-5555--7777-5555-3333-5555---------------------------|
A|-5555-3333-1111-3333--5555-3333-1111-3333---------------------------|
E|--------------------------------------------------------------------|


Verse:
e|--------------------------------------------------------------------|
B|--------------------------------------------------------------------|
G|-7777------------------------------------10-10-10-10----------------|
D|-7777-8888-10-10-10-10--------------7777-10-10-10-10-10-10-10-10-10-|
A|-5555-8888--8--8--8--8-10-10-10-10--7777--8--8--8--8-10-10-10-10-10-|
E|------6666--------------8--8--8--8--5555--------------8--8--8--8--8-|

e|--------------------------------------------------------------------|
B|--------------------------------------------------------------------|
G|--------------------------------------------------------------------|
D|-10-10-10-----------------------------------------------------------|
A|-10-10-10-----------------------------------------------------------|
E|--8--8--8-----------------------------------------------------------|

[ Tab from: http://www.guitartabs.cc/tabs/n/no_fun_at_all/its_all_up_to_you_tab.html ]
Pre-chorus:
e|--------------------------------------------------------------------|
B|--------------------------------------------------------------------|
G|------------------7777777777777777-----------------------10-10-10-10|
D|-8888-10-10-10-10-7777777777777777-8888-10-10-10-10-7777-10-10-10-10|
A|-8888-10-10-10-10-5555555555555555-8888-10-10-10-10-7777--8--8--8--8|
E|-6666--8--8--8--8------------------6666--8--8--8--8-5555------------|


Chorus:
e|--------------------------------------------------------------------|
B|--------------------------------------------------------------------|
G|-7777-10-10-10-10---------------------------------------------------|
D|-7777-10-10-10-10-10-10-10-10-7777----------------------------------|
A|-5555--8--8--8--8-10-10-10-10-7777----------------------------------|
E|-------------------8--8--8--8-5555----------------------------------|


Bridge:
e|--------------------------------------------------------------------|
B|--------------------------------------------------------------------|
G|-7777------------------------------7777--------------10-9-7---------|
D|-7777-7777-5555-7777---------------7777-7777-5555--7-10-9-7---------|
A|-5555-7777-5555-5555---------------5555-7777-5555--7--8-7-5---------|
E|------5555-3333------play-3-times-------5555-3333--5----------------|

ENJOY!
(put in COURIER for right layout)

Robbe Tytgat
Comments