No Fun At All - Beat Em Down Chords & Tabs

 

Beat Em Down Chords & Tabs

No Fun At All Chords & Tabs

Version: 1 Type: Bass Tab 0 ratings
1 star 2 stars 3 stars 4 stars 5 stars
comments

Beat Em Down Bass Tab

Beat 'Em Down
by No Fun At All

  
  
Guitar Intro 
  
G |-------------------|- 
D |-------------------|- 
A |--3333333333333333-|- 
E |-------------------|- 
  
  

G |---------------------|--------------------| 
D |-*----------------*--|--------------------| 
A |-*-----8-633-64---*--|---8-63----68----68- | 
E |---33----------------|33-------------8---- | 
  
  

G |-------------------------| 
D |-*---------------------*-| 
A |-*---------68-86868----*-| 
E |----88-868---------------| 
  
  

Fig 1 (When I'm ...) 

G |----------------------|---------- | 
D |-*------------------*-|---------- | 
A |-*-33336666----6655-*-|-333-13--- | 
E |-----------3333-------|---------- | 
  
  

Fig 2 (I wonna beat ...) 
[ Tab from: http://www.guitartabs.cc/tabs/n/no_fun_at_all/beat_em_down_btab.html ]
G |-------------------------|---------------------------| 
D |-*---------------------*-|---------------------------| 
A |-*-33336666--------8---*-|-33336666------------------| 
E |------------444466---6---|---------4444-666666666666-| 
  
  

Fig 3a (Like to sort...) Fig 3b 

G |-----------------------|--------------- | 
D |-----------------------|--------------- | 
A |-3333----6666----6-----|-3333------6--- | 
E |-----4444-----66---6---|------4444-----|(Down and out) 
  
  

G |-----------------------| 
D |-*-----------------*---| 
A |-*--------68-86868-*---| 
E |---88-868--------------| 
  
  

Fig 1 ... Fig 2 ... Fig 3 
  
  

G |-----------------------| 
D |-*---------------*-----| 
A |-*-333-63-6665---*-----| 
E |-----------------------| 

Fig 2 ... Fig 3a(3X) ... Fig 3b 
  
  

G |--------| 
D |--------| 
A |-----3--| 
E |--------| 
  
  
Comments