No Exit - One Last Word Chords & Tabs

 

One Last Word Chords & Tabs

No Exit Chords & Tabs

Version: 1 Type: Tab 0 ratings
1 star 2 stars 3 stars 4 stars 5 stars
comments

One Last Word Tab

 
Please support mxtabs by visiting our advertisers  
Mxtabs / Guitar Tabs No Exit-One last word           Rating : Not Rated        
 
Buy The Official Sheet Music   Rate This Tab:  5.0 4.0 3.0 2.0 1.0      
 
 Remove This Tab | Printable Version | Read Corrections | Correct This Tab 

Mxtabs [http://www.mxtabs.net]
     Intro
 (Guitarist 1)
|-----------------------------------------------
|-----------------------------------------------
|-----9---9------------------------------------
|----9-9-9-9--9---9----11-----11----6---7--
|---7---7----9-9-9-9-11--11-11--11-6---7--
|-----------7---7---9------9------4---5------
[ Tab from: http://www.guitartabs.cc/tabs/n/no_exit/one_last_word_tab.html ]
|------------------------------------------------
|------------------------------------------------
|-----9---9-------------------------------------
|----9-9-9-9--9---9----11-----11----6---7----
|---7---7----9-9-9-9-11--11-11--11-6---7---
|-----------7---7---9------9------4---5--------
     played x4
   Bass tab
|------------------------------------------------
|------------------------------------------------
|-----7-7-7-7-----------------------------------
|-------------7-7-7-7-9-9-9-9-4-4-5-5--------
   Joins in after 2 intros
   Chorus(Guitarist 2 plays all the through)
|------------------------------------------------
|------------------------------------------------
|---9-9-9-9-------------------------------------
|---9-9-9-9-------------------------------------
|---7-7-7-7-9-9-9-9-11-11-11-11-6-6-7-7---
|-----------7-7-7-7-9--9--9--9--4-4-5-5------
  
   Solo(Guitarist 1)
|------------------------------------------------
|------------------------------------------------
|----9--9---------------------------------------
|-----9--9-9---9---11----11----6----7---------
|---7--7----9---9----11----11---6--7-7-------
|---------7---7---9-----9-----4---5------------
Corrections on this Tab :  
Corrections are brief messages that point out specific errors and how they can be fixed. These corrections are intended to correct and enhance the tabs in this archive, so that the overall quality can be improved. Please do not make a correction unless you have something usefull to say that will improve the tabs in this archive. If you find a correction that violates these rules, please report it.                              Thanks, mxtabs  
  Click Here to View the Corrections 
Comments