No Excuse - Why Cant It Be Chords & Tabs

 

Why Cant It Be Chords & Tabs

No Excuse Chords & Tabs

Version: 1 Type: Tab 0 ratings
1 star 2 stars 3 stars 4 stars 5 stars
comments

Why Cant It Be Tab

---------10-----------9----------12----------10----------9---------12
-----12-----------11---------14----------12----------11--------14----
-11-----------10---------13----------11----------10--------13---------
----------------------------------------------------------------------
----------------------------------------------------------------------
----------------------------------------------------------------------

10--9---12--10--9---12--0--0--0--0--0--0------------------------------
12--11--14--12--11--14--3--2--5--3--2--5------------------------------
11--10--13--11--10--13--x--x--x--x--x--x------------------------------
------------------------3--2--5--3--2--5------------------------------
---(8x)-------(8x)------(8x)-----(8x)---------------------------------
----------------------------------------------------------------------

----------------------------------------------------------------------
----------------------------------------------------------------------
------0--------0---------0--------0--------0---------0----------------
---4--------4---------4--------4--------2---------2-------------------
2--------2---------0--------0--------0---------0----------------------
----------------------------------------------------------------------

----------------------------------------------------------------------
----------------------------------------------------------------------
------4--------4--------4--------4--------4--------4------------------
---0--------0--------2--------2--------0--------0---------------------
2--------2--------0--------0--------0--------0------------------------
----------------------------------------------------------------------
[ Tab from: http://www.guitartabs.cc/tabs/n/no_excuse/why_cant_it_be_tab.html ]
----------------------------------------------------------------------
----------------------------------------------------------------------
0--0--0--0--0--0--0--0--4--4--4--4--4--4--4-4--0----------------------
4--4--2--4--4--4--2--4--0--2--0--2--0--2--0-2--4----------------------
2--0--0--0--2--0--0--0--2--0--0--0--2--0--0-0--2----------------------
(4x)-------------------------------------------(1x)-------------------

---------10-----------9----------12----------10----------9---------12
-----12-----------11---------14----------12----------11--------14----
-11-----------10---------13----------11----------10--------13---------
----------------------------------------------------------------------
----------------------------------------------------------------------
----------------------------------------------------------------------

10--9---12--10--9---12--0--0--0--0--0--0------------------------------
12--11--14--12--11--14--3--2--5--3--2--5------------------------------
11--10--13--11--10--13--x--x--x--x--x--x------------------------------
------------------------3--2--5--3--2--5------------------------------
---(8x)-------(8x)------(8x)-----(8x)---------------------------------
----------------------------------------------------------------------

----------------------------------------------------------------------
----------------------------------------------------------------------
------0--------0---------0--------0--------0---------0----------------
---4--------4---------4--------4--------2---------2-------------------
2--------2---------0--------0--------0---------0----------------------
----------------------------------------------------------------------

----------------------------------------------------------------------
----------------------------------------------------------------------
------4--------4--------4--------4--------4--------4------------------
---0--------0--------2--------2--------0--------0---------------------
2--------2--------0--------0--------0--------0------------------------
----------------------------------------------------------------------
[ Tab from: http://www.guitartabs.cc/tabs/n/no_excuse/why_cant_it_be_tab.html ]
----------------------------------------------------------------------
----------------------------------------------------------------------
0--0--0--0--0--0--0--0--4--4--4--4--4--4--4-4--0----------------------
4--4--2--4--4--4--2--4--0--2--0--2--0--2--0-2--4----------------------
2--0--0--0--2--0--0--0--2--0--0--0--2--0--0-0--2----------------------
(4x)-------------------------------------------(1x)-------------------
Comments