No Excuse - No Excuse Chords & Tabs

 

No Excuse Chords & Tabs

No Excuse Chords & Tabs

Version: 1 Type: Tab 0 ratings
1 star 2 stars 3 stars 4 stars 5 stars
comments

No Excuse Tab

e|--------------------------------------------------------------------
B|---3-3-3-3-3-3-3-3-2-2-2-2-2-2-2-2-5-5-5-5-5-5-5-5------------------
G|---x-x-x-x-x-x-x-x-x-x-x-x-x-x-x-x-x-x-x-x-x-x-x-x------------------
D|---3-3-3-3-3-3-3-3-2-2-2-2-2-2-2-2-5-5-5-5-5-5-5-5------------------
A|--------------------------------------------------------------------
E|--------------------------------------------------------------------

e|--------------------------------------------------------------------
B|---3-3-3-3-3-3-3-3-2-2-2-2-2-2-2-2-5-5-5-5-5-5-5-5------------------
G|---x-x-x-x-x-x-x-x-x-x-x-x-x-x-x-x-x-x-x-x-x-x-x-x------------------
D|---3-3-3-3-3-3-3-3-2-2-2-2-2-2-2-2-5-5-5-5-5-5-5-5------------------
A|--------------------------------------------------------------------
E|--------------------------------------------------------------------

e|---0-0-0-0-0-0-0-0-0-0-0-0-0-0-0-0-0-0-0-0-0-0-0-0------------------
B|---2-2-2-2-2-2-2-2-1-1-1-1-1-1-1-1-4-4-4-4-4-4-4-4------------------
G|---x-x-x-x-x-x-x-x-x-x-x-x-x-x-x-x-x-x-x-x-x-x-x-x------------------
D|---3-3-3-3-3-3-3-3-2-2-2-2-2-2-2-2-5-5-5-5-5-5-5-5------------------
A|--------------------------------------------------------------------
E|--------------------------------------------------------------------

e|---0-0-0-0-0-0-0-0-0-0-0-0-0-0-0-0-0-0-0-0-0-0-0-0------------------
B|---2-2-2-2-2-2-2-2-1-1-1-1-1-1-1-1-4-4-4-4-4-4-4-4------------------
G|---x-x-x-x-x-x-x-x-x-x-x-x-x-x-x-x-x-x-x-x-x-x-x-x------------------
D|---3-3-3-3-3-3-3-3-2-2-2-2-2-2-2-2-5-5-5-5-5-5-5-5------------------
A|--------------------------------------------------------------------
E|--------------------------------------------------------------------
[ Tab from: http://www.guitartabs.cc/tabs/n/no_excuse/no_excuse_tab.html ]
e|--------------------------------------------------------------------
B|--------------------------------------------------------------------
G|-----------0---------0----------0----------4-------4--------4-------
D|-------4----------4----------2----------0-------2---------0---------
A|---2----------0----------0-----------2--------0---------0-----------
E|--------------------------------------------------------------------

e|--------------------------------------------------------------------
B|--------------------------------------------------------------------
G|--------------------------------------------------------------------
D|--------------------------------------------------------------------
A|--------------------------------------------------------------------
E|---3-3-3-3-3-3-3-3-2-2-2-2-2-2-2-2-5-5-5-5-5-5-5-5------------------

e---------------------------------------------------------------------
B|--------------------------------------------------------------------
G|--------------------------------------------------------------------
D|--------------------------------------------------------------------
A|---0-------0-------0-------0-------0-------0------------------------
E|---3-3-3-3-3-3-3-3-2-2-2-2-2-2-2-2-5-5-5-5-5-5-5-5------------------
same thing from beginning
ending...
e|--------------------------------------------------------------------
B|---3-3-3-3-2-2-2-2-5-5-5-5------------------------------------------
G|--------------------------------------------------------0-----0--0--
D|---3-3-3-3-2-2-2-2-5-5-5-5----------------------------4-----4----2--
A|----------------------------------------------------2-----0------0--
E|---------------------------3-3-3-3-2-2-2-2-5-5-5-5------------------
Comments