No Doubt - Underneath It All Chords & Tabs

 

Underneath It All Chords & Tabs

No Doubt Chords & Tabs

Version: 3 Type: Bass Tab 0 ratings
1 star 2 stars 3 stars 4 stars 5 stars
comments

Underneath It All Bass Tab

SONG: underneath it all
ARTIST: no doubt
TABBED BY: [Xeribral.corteX]
just try to find out when will the fills cut in at the verse and intro...
the beat is kinda snappy or something... 
there are lots of missing things in this tab
but it sounds great even w/out it... have fun!!!
comments, suggestions and complaints... mail me at 
Xeribral_corteX@hotmail.com [X's are capital]

intro/verse
G|----------------------------------
D|-------2--------------------------
A|--------2--0-2-2------------------ [4x]
E|---0------------------------------

fill-1:
G|----------------------------------
D|----------2-----------------------
A|-2h4-------2--0-2-2---------------
E|----0-----------------------------

fill-2:
G|----------------------------------
D|-------2--------------------------
A|--------2--0-222------------------
E|---0------------------------------
[ Tab from: http://www.guitartabs.cc/tabs/n/no_doubt/underneath_it_all_btab_ver_3.html ]
pre-chorus:
G|----------------------------------
D|-------2--------------2-4---------
A|--------2--0-2-2---2-4------------
E|---0------------------------------

G|---------------------------------
D|---------------------------------
A|---00--200---4--422--------------[4x] 
E|---------------------------------

G|---------------------------------
D|---------------------------------
A|---0000000-----------------------
E|---------------------------------

chorus:
G|----------------------------------
D|----------------------------------
A|--------2222--00---2222-0000------[4x]
E|---0000----------------------00---

?????
"so many moves that we have seen...."
G|----------------------------------
D|-------2--------------------------
A|--------2--0-2-2------------------
E|---0------------------------------

ending chorus:
G|----------------------------------
D|-------2--------------------------
A|--------2--0-2-2------------------[repeat till fade....]
E|---0------------------------------
Comments