No Doubt - Trapped In A Box Chords & Tabs

 

Trapped In A Box Chords & Tabs

No Doubt Chords & Tabs

Version: 1 Type: Tab 0 ratings
1 star 2 stars 3 stars 4 stars 5 stars
comments

Trapped In A Box Tab

Riff A - Intro 

e|----2----------1---------2----------1-----|----2----------1---------2-------1-1------| 
B|------3----------1---------3----------1---|------3----------1---------3----------1---| 
G|--2-----2----2-----2---2-----2----2-----2-|--2-----2----2-----2---2-----2----------2-| 
D|0----------3---------0----------3---------|0----------3---------0---------3----------| 
A|------------------------------------------|------------------------------------------| 
E|------------------------------------------|------------------------------------------| 

Riff B (Played in between Riff A and C...and in other obvious places) 

e|------------------------------------------| 
B|----3------3------3-----1-1---------------| 
G|--4------2------4-----------2-------------| 
D|5------3------5------3--------3-----------| 
A|------------------------------------------| 
E|------------------------------------------| 

Riff C (Main Riff) 

e|----2----------1---------2----------1-----|----2----------1---------2---------1-------| 
B|------3----------1---------3----------1---|------3----------1---------3---------1-----| 
G|--2-----2----2-----2---2-----2----2-----2-|--2-----2----2-----2---2-----2---2-----2---| 
D|0----------3---------0----------3---------|0----------3---------0---------3-----------| 
A|------------------------------------------|-------------------------------------------| 
E|------------------------------------------|-------------------------------------------| 

Pre-chorus 

e|---3---3-------1-----1---------------------|------------------------------------------| 
B|---5-----5-----3-----1---------------------|------------------------------------------| 
G|---5-------5---3-----4---------------------|------------------------------------------| 
D|---5-----------3-----3---------------------|------------------------------------------| 
A|---3-----------1-----3---------------------|------------------------------------------| 
E|---------------------1---------------------|------------------------------------------| 

Chorus (Repeat Riff 2 times) 
[ Tab from: http://www.guitartabs.cc/tabs/n/no_doubt/trapped_in_a_box_tab.html ]
e|------------------------------------------|-------------------------------------------| 
B|--3--x--x--3--3--x--3-x--x--3-------------|--3--x--x--3--3--x--2--x--x--3-------------| 
G|--3--x--x--3--3--x--3-x--x--3-------------|--4--x--x--4--4--x--3--x--x--4-------------| 
D|--2--x--x--2--2--x--2-x--x--2-------------|--3--x--x--3--3--x--2--x--x--3-------------| 
A|--3--x--x--3--3--x--3-x--x--3-------------|--5--x--x--5--5--x--4--x--x--5-------------| 
E|------------------------------------------|--3--x--x--3--3--x--2--x--x--3-------------| 

Riff after Chorus 

e|---5-----5---------4------4---------------| 
B|-----5-----5---------4--------------------| 
G|-6-----6-----6\5-5-----5------------------| 
D|------------------------------------------| 
A|------------------------------------------| 
E|------------------------------------------| 

Solo 

e|-10-10-10p8---10 10 10p8---------8-----------| 
B|-----------10------------10p8-10---10p8---10-| 
G|----------------------------------------8----| X 2 
D|---------------------------------------------| 
A|---------------------------------------------| 
E|---------------------------------------------| 

e|--------------------------------------10---10h13-10p8-10p8--------------------| 
B|----------------------10---10h13-10h13---13----------------10p8-10p8----------| 
G|------10---10h12-10h12---12------------------------------------------10p7-10--| 
D|-10h12---12-------------------------------------------------------------------| 
A|------------------------------------------------------------------------------| 
E|------------------------------------------------------------------------------| 

e|------------------------------------------------------------------------------| 
B|-------------8^9-----------------------10-10/15-13^15-13----------------------| 
G|-7----7--10------7-10--7----7-7-10-10--------------------14h15p14-12-14-14----| 
D|---10--------------------10---------------------------------------------------| 
A|------------------------------------------------------------------------------| 
E|------------------------------------------------------------------------------| 

e|-------------13/15-13---------------------------------------------------------| 
B|-13/15-13-------------15h18p15-13-13h15p13------------------------------------| 
G|----------14-------------------------------14-12------------------------------| 
D|-------------------------------------------------15-12------------------------| 
A|------------------------------------------------------------------------------| 
E|------------------------------------------------------------------------------| 

Riff D (Always wanting a different view...) 

e|-3-----3--2-----1-----1--2p0------3-----3--2------1-----1--2p0------| 
B|---3--------3-----3----------2------3--------3------3----------2----| 
G|-----3--------2-----3----------3------3--------2------3----------3--| X 2 
D|--------------------------------------------------------------------| 
A|--------------------------------------------------------------------| 
E|--------------------------------------------------------------------| 

Comments