No Doubt - Total Hate 9 Chords & Tabs

 

Total Hate 9 Chords & Tabs

No Doubt Chords & Tabs

Version: 1 Type: Bass Tab 0 ratings
1 star 2 stars 3 stars 4 stars 5 stars
comments

Total Hate 9 Bass Tab

No Doubt - Total Hate 95
Submitted By: Anjel
EMail: chimchim221@yahoo.com
(J. Spence, C. Leal, G. Gonzalez)
Transcribed by Rob Staph 


NOTE: If this is hard for you to do there is an alternative tuning that
may make this a bit easier..  Drop the D string to D-flat and adjust
the tab numbering accordingly  (+1 to all notes played on the D string)

Intro:
G|-----------------------|-----------------------|
D|-------3---------3-----|-------3---------------|
A|---4-----6-4---4-----6-|---4-----6-4-----4---6-|
E|-6---6-------6-----4---|-6---6-------6-2---4---|
(Repeat 2 times)

G|-----------------------|-----------------------|
D|-------3---------------|-------3---------3-----|
A|---4-----6-4---4-4-----|---4-----6-4---4-----6-|
E|-6---6-------6-----4-4-|-6---6-------6-----4---|
 |
G|----------------------|-----------------------------|
D|-------3--------------|-------3-----------4-6-4-----| 
A|---4-----6-4-----4--6-|---4-----6-4---4-6-------6-4-|
E|-6---6-------6-2---4--|-6---6-------6---------------|
(Don't repeat)

Body:

G|-----------------------|-----------------------|
D|-------3---------3-----|-------3---------------|
A|---4-----6-4---4-----6-|---4-----6-4---4-4-----|
E|-6---6-------6-----4---|-6---6-------6-----4-4-|
(Repeat 2 times)

G|-----------------------|-----------------------------|
D|-------3---------3-----|-------3-----------4-6-4-----| 
A|---4-----6-4---4-----6-|---4-----6-4---4-6-------6-4-|
E|-6---6-------6-----4---|-6---6-------6---------------|
(Don't repeat)

G|-----------------------|-----------------|
D|-------3---------3-----|-------3---------|
A|---4-----6-4---4-----6-|---4-----6-4---4-|
E|-6---6-------6-----4---|-6---6-------6---|
(Don't repeat)

Chorus:

G|-----------------|
D|-6-6-----4-4-----|
A|-----6-6-----4-4-|
E|-----------------|
(repeat 4 times)
[ Tab from: http://www.guitartabs.cc/tabs/n/no_doubt/total_hate_9_btab.html ]
G|-----------------------|----------------------|
D|-------3---------3-----|-------3--------------|
A|---4-----6-4---4-----6-|---4-----6-4-----4--6-|
E|-6---6-------6-----4---|-6---6-------6-2---4--|
 |
G|-----------------------------|
D|-------3-----------4-6-4-----| 
A|---4-----6-4---4-6-------6-4-|
E|-6---6-------6---------------|


Ok, theres the notes, now here's the plan.

After running through these all once it repeats slightly differently.
play the body and first half of the chorus just like the first time. 
The song switches to that part with bradly right after repeating the
first half of the chorus. Here is how that part goes:

G|-----------------|-------------------------------------------------------------|
D|-----------------|-------------------8-----------------------------6-----------|
A|-----4-6-----2-4-|-----6---6-6-6-6-6---6-9-9-9-9-----4---4-4-4-4-4---4-7-7-7-7-|
E|-2-4-----0-2-----|-0-4---4-----------------------0-2---2-----------------------|
   ^-------------^   ^---------------------------------------------------------^
   repeat 2 times                          repeat 2 times

part with the trumpet solo:

G|---------------------|-------------------------------------------------------------|
D|---------------------|-------------------8-----------------------------6-----------|
A|-----2---6-----0---4-|-----6---6-6-6-6-6---6-9-9-9-9-----4---4-4-4-4-4---4-7-7-7-7-|
E|-4-6-------2-4-------|-0-4---4-----------------------0-2---2-----------------------|
       ^---^     ^---^

G|-------------------------------------------------------------|
D|-------------------------------------------------------------|
A|-----------------6-6-6-6-6-6-6-6-----------------4-4-4-4-4-4-|
E|-4-4-4-4-4-4-4-4-----------------2-2-2-2-2-2-2-2-------------|

Slide the parts with the ^---^ under them(only during the trumpet solo)

after that do the first half of the chorus over and over till the end.


This looks hard but its not... You get used to it pretty fast.

If your gonna print this out be sure to set the page up for "landscape"
printing...
Comments