No Doubt - The Imperial March Chords & Tabs

 

The Imperial March Chords & Tabs

No Doubt Chords & Tabs

Version: 1 Type: Bass Tab 0 ratings
1 star 2 stars 3 stars 4 stars 5 stars
comments

The Imperial March Bass Tab

G|-------------------|-----------------------------------------------|
D|-------------------|-5-5-5-7---------------------------------------|
A|-5-5-5---7-5---7-5-|---------6-5---7-5-----------------------------|
E|-------6-----6-----|-------------6---------------------------------|

G|-5-0-5-4-333-0-3-2-111-0-1-----------------------------------------|
D|-------------------------------------------------------------------|
A|------------------------------7-5---7-5----------------------------|
E|----------------------------6-----6--------------------------------|
[ Tab from: http://www.guitartabs.cc/tabs/n/no_doubt/the_imperial_march_btab.html ]
Comments