No Doubt - Sunday Morning Chords & Tabs

 

Sunday Morning Chords & Tabs

No Doubt Chords & Tabs

Version: 1 Type: Tab 0 ratings
1 star 2 stars 3 stars 4 stars 5 stars
comments

Sunday Morning Tab

   
e-----------12--- 
b----------12---- 
g---------------- 
d---------------- 
a---------------- 
E---------------- 

pre-verse - play these chords: 

    c#        E         c#        E 
e-4-4-4-4-|-4-4-4-4-|-4-4-4-4-|-4-4-4-4-| 
b-5-5-5-5-|-5-5-5-5-|-5-5-5-5-|-5-5-5-5-| 
g-4-4-4-4-|-6-6-6-6-|-4-4-4-4-|-6-6-6-6-| x2 
d---------|---------|---------|---------| 
a---------|---------|---------|---------| 
E---------|---------|---------|---------| 

verse - same chords but on a fast reggae beat (C#-E) 

"you had me on my knees" part - play these two power-chords: 

   A      c# 
e-----|------- 
b-----|------- 
g-----|------- 
d--7--|---6--- 
a--7--|---6--- 
E--5--|---4--- 

return to verse chords until "but you looked like me on sunday" - this is another A-C# part followed by strumming on an E* chord 
[ Tab from: http://www.guitartabs.cc/tabs/n/no_doubt/sunday_morning_tab.html ]
      E* (an octave higher) 
e-----------| 
b-----------| 
g-----------| 
d-----9-----| 
a-----7-----| 
E-----------| 

before the chorus begins there's a little riff that goes like this: 

e----------------| 
b--2-4-2-4-2-4---| 
g--2-4-2-4-2-4---| 
d----------------| 
a----------------| 
E----------------| 

the chorus is played with power-chords - c#,E,F#,A,c#,E,A,c#,B 

"i thought i knew you": 

e--------5------5-----5------| 
b-------6------6-6---6-6-----| 
g----------------------------| 
d----------------------------| 
a----------4-----------------| 
E--5-------------------------| 

Then there is the E* chord again with the bass riff - before the second verse there is this kick ass riff: 

e----------------------| 
b----55-44-------------| 
g----------66-4-6-4-2-1| 
d----------------------| 
a----------------------| 
E----------------------| 

repeat verse and chorus 
Comments