No Doubt - Stricken Chords & Tabs

 

Stricken Chords & Tabs

No Doubt Chords & Tabs

Version: 1 Type: Tab 0 ratings
1 star 2 stars 3 stars 4 stars 5 stars
comments

Stricken Tab

   
Verse: 

E|-------------------------------------| 
B|-8--8--8--8--8-8-8-8-6-6-6-6-6-6-6-6-| 
G|-9--9--9--9--7-7-7-7-7-7-7-7-7-7-7-7-| 
D|-10-10-10-10-9-9-9-9-8-8-8-8-8-8-8-8-| 
A|-------------------------------------| 
E|-------------------------------------| 

Love overcomes all of my senses...: 

(Gtr1): 
E|-5---5---5---5---5---5---5---5---| 
B|-6---6---5---5---6---6---5---5---| 
G|-7---7---5---5---7---7---5---5---| 
D|-7---7---7---7---7---7---7---7---| 
A|---------------------------------| 
E|---------------------------------| 

(Gtr2): 
E|-------------------------------| 
B|-----6-------6-------5-------5-| 
G|---7---7---7---7---5---5---5---| 
D|-7-------7-------7-------7-----| 
A|-------------------------------| 
E|-------------------------------| 

(2nd "I love you completely..."): 
[ Tab from: http://www.guitartabs.cc/tabs/n/no_doubt/stricken_tab.html ]
E|--------------------------| 
B|-10-10--10-10-10-8--8-8---| 
G|-10-10--10-9--9--8--8-8---| 
D|-10-10--10-10-10-8--8-8---| 
A|--------------------------| 
E|--------------------------| 

Kiss me over and over...: 

(Gtr1): 
E|-5-5-5-5-5-------------3-3-3-3-3-3-6-6-6-6-6-6--| 
B|-6-6-6-6-6-5-5-5-5-5-5-3-3-3-3-3-3-6-6-6-6-6-6--| 
G|-7-7-7-7-7-5-5-5-5-5-5-4-4-4-4-4-4-7-7-7-7-7-7--| 
D|-7-7-7-7-7-5-5-5-5-5-5-5-5-5-5-5-5-8-8-8-8-8-8--| 
A|-5-5-5-5-5-3-3-3-3-3-3-5-5-5-5-5-5-8-8-8-8-8-8--| 
E|-----------------------3-3-3-3-3-3-6-6-6-6-6-6--| 

(Gtr2): 
E|-----------------------------3------------------| 
B|-----6-----------5---------3---3---------6------| 
G|---7---7-------5---5-----4-------4-----7---7----| 
D|-7-------7---5-------5-5-------------8-------8--| 
A|------------------------------------------------| 
E|------------------------------------------------| 
Comments