No Doubt - Staring Problem Chords & Tabs

 

Staring Problem Chords & Tabs

No Doubt Chords & Tabs

Version: 2 Type: Bass Tab 0 ratings
1 star 2 stars 3 stars 4 stars 5 stars
comments

Staring Problem Bass Tab

   
No Doubt-"Staring Problem"
Written by-Gwen Stefani,Tony Kanal and Eric Stefani
Bass played by-Tony Kanal(The God of bass)
Tabbed by-Joel Aponte
CD-"The Return Of Saturn"

Everything is played very fast

Intro
G:----------------------
D:---2-2-----------2----
A:------0-0-3-3------3-2
E:0-0-------------------

Verse 
G:--------------
D:---2-2--------
A:-------0-0-3-3
E:0-0-----------

End of the 1st verse
G:-----------
D:-----------
A:5~~~~------
E:-----1\12/1

End of other verses
G:-------
D:-------
A:5~~~~~~
E:-------

Chorus #1-Parenthesis played only the first time
G:-------------------------------------------
D:----------5-5-5-3-3--3-5-5--3-3-3-3-5-7-5--
A:(0-1)--3-3-3----------3------5-------------
E:-------------------------------------------
[ Tab from: http://www.guitartabs.cc/tabs/n/no_doubt/staring_problem_btab_ver_2.html ]
Chorus #2
G:--------------------------------------
D:-----5-5-5-3-3--3-5-5--3-3-3-3-5-7-5--
A:3-3-3----------3------5--------------3
E:--------------------------------------

Interlude
G:-----------------------------------------
D:------------3-3-2------------------------
A:0-0-7-7-5-5-----------0-0-7-7-5-5--------
E:----------------------------------0-0-0-3

Other Riff
G:-------------------------------
D:----------------5-5-3-3-1-1-0-0
A:-------------------------------
E:0-0-1-1-3-3-5-5----------------

\-slide up
/-slide down
~-Let ring

Order:
Intro-x2
Verse-x12
End of 1st verse-x1
Verse-x8
Chorus #1-x1
Chorus #2-x1
Intro-x1
Verse-x8
Chorus #1-x3
Chorus #2-X1
Interlude-X4
Other Riff-X1
Chorus #1-x5
Chorus #2-x1

Email is greatly apreciated  at craigfan112@everclearfanatic.com
Comments