No Doubt - Soundquake Chords & Tabs

 

Soundquake Chords & Tabs

No Doubt Chords & Tabs

Version: 1 Type: Tab 0 ratings
1 star 2 stars 3 stars 4 stars 5 stars
comments

Soundquake Tab

   
No Doubt - Soundquake
Submitted By: Anjel
EMail: chimchim221@yahoo.com
(unreleased)
Transcribed by Marco Gaus 


Intro:

E|------------------------------|
B|------------------------------|
G|------------------------------|
D|-6-5-3------------6-5-3-------|
A|---------6-5-3----------6-5---|
E|------------------------------|

For the verse (should be possible to figure out the rhythm):

E|-8------|---6---6---6---6-7--|
B|-8------|---6---6---6---6-7--|
G|--------|--------------------|
D|--------|--------------------|
A|--------|--------------------|
E|--------|--------------------|


(Anticipation...):

E|------------------------------------------------------|
B|------------------------------------------------------|
G|------------------------------------------------------|
D|-------1------------------1-----3-----------1---------|
A|---1-3---3-1-3--------1-3---3-1---------1-3---3-1-3---|
E|-3------------------3-----------------3---------------|

E|------------------|--------|
B|------------------|--------|
G|------------------|--3-----|
D|-6-5-3------------|--3-----|
A|---------6-5-3----|--1-----|
E|------------------|--------|


(The ground is shaking under me..):
[ Tab from: http://www.guitartabs.cc/tabs/n/no_doubt/soundquake_tab.html ]
E|-------------------------------|---------------------------------|
B|-------------------------------|---------------------------------|
G|-8--7------8--7---6--5---8--7--|---------------------------------|
D|-8--7------8--7---6--5---8--7--|-6-5-3---------------------------|
A|-6--5------6--5---4--3---6--5--|---------6-5-3-------------------|
E|-------------------------------|---------------------------------|

2x:

E|-3-3-----------------------------|
B|-3-3---------1-1-----------------|
G|-4-4-8-8-5-5-2-2-6-6-----8-8-8-8-|
D|-5-5-8-8-5-5-3-3-6-6-6-6-8-8-8-8-|
A|-----6-6-3-3-----4-4-6-6-6-6-6-6-|
E|---------------------4-4---------|

(Can you feel the rhythm of the soundquake...):

E|-8--8---8--8---8---8--8--8----|
B|-8--10--8--10--9---8--9--8----|
G|-8--10--8--10--10--8--10-8----|
D|-------------------10-10-10---|
A|-------------------10-8--10---|
E|-------------------8-----8----|
                                              _________________
                                              |      2x       |
E|--------------------------------------------|---------------|
B|-13---13-12-11------------------------------|---------------|
G|---------------13---13-12-11-10---10-9-8----|-/10-10-9-8----|
D|-----------------------------------------11-|------------11-|
A|--------------------------------------------|---------------|
E|--------------------------------------------|---------------|

Play this one for "down quarters...":

E|-9---|
B|-9---|
G|-----|
D|-----|
A|-----|
E|-----|
Comments