No Doubt - Snakes Chords & Tabs

 

Snakes Chords & Tabs

No Doubt Chords & Tabs

Version: 1 Type: Tab 0 ratings
1 star 2 stars 3 stars 4 stars 5 stars
comments

Snakes Tab

Intro: 
E|--------------| 
B|--------------| 
G|--------------| 
D|-2-2----2-2---| 
A|-2-2----2-2---| 
E|-0-0----0-0---| 

 __________________________________________________________ 
 |            2x                    |         2x          | 
E|----------------------------------|---------------------| 
B|----------------------------------|---------------------| 
G|----------------------------------|-2-2-2-3-2-----------| 
D|-2-2-2-4-5--4-5-4-2-2-2-----------|-2-2-------3-2-------| 
A|-2-2----------------2-2---2-3-2---|-0-0-----------3-2---| 
E|-0-0----------------0-0-----------|-------------------3-| 

Now you're falling down...: 

E|-7----5----7----5----7----5----3----5---| 
B|-7----5----7----5----7----5----3----5---| 
G|-7----6----7----6----7----6----4----6---| 
D|-9----7----9----7----9----7----5----7---| 
A|-9----7----9----7----9----7----5----7---| 
E|-7----5----7----5----7----5----3----5---| 

Solo: 

E|-------------------------------| 
B|-11b--r8-------7/8/12\8\7/8\7--| 
G|-------------------------------| 
D|-------------------------------| 
A|-------------------------------| 
E|-------------------------------| 

E|------------------------------------------------| 
B|------------------------------------------------| 
G|-12-12\11\9\8/9\8\5\4\5\8-----8/9--9/11--11/12--| 
D|------------------------------------------------| 
A|------------------------------------------------| 
E|------------------------------------------------| 
[ Tab from: http://www.guitartabs.cc/tabs/n/no_doubt/snakes_tab.html ]
E|-7-5-----7-5---------------------------------------------------| 
B|-----8-7-----8-7-8-7h8p7p5-------------------------------------| 
G|---------------------------7-5h7-5h7p5\4-5p4-------------------| 
D|---------------------------------------------7-5-4h5p4---4-----| 
A|-------------------------------------------------------7---5h7-| 
E|---------------------------------------------------------------| 

E|-----------------------------------------------------------------| 
B|-------------------------------------------------------4h5/7-/8--| 
G|-------------------------4h5p4h5p4---4-----4h5---4h5h7-----------| 
D|-4h5p4h5p4---4-----4h5h7-----------7---5h7-----7-----------------| 
A|-----------7---5h7-----------------------------------------------| 
E|-----------------------------------------------------------------| 

E|---7-------------------------------------------------------| 
B|-8----8-8-8/10-10-10-10-10/12-12-12-12-12-12/15-15-15-15\--| 
G|-----------------------------------------------------------| 
D|-----------------------------------------------------------| 
A|-----------------------------------------------------------| 
E|-----------------------------------------------------------| 

Outro: 

E|-0----2h3p2---------------2-3------| 
B|-0---------------------------------| 
G|-0---------------------------------| 
D|-2---------------------------------| 
A|-----------------------------------| 
E|-----------------------------------| 



Comments