No Doubt - Sixteen Solo Chords & Tabs

 

Sixteen Solo Chords & Tabs

No Doubt Chords & Tabs

Version: 1 Type: Tab 0 ratings
1 star 2 stars 3 stars 4 stars 5 stars
comments

Sixteen Solo Tab


E|-15p12----12-15p12----12-15p12----12-15p12----12-15p12----12---| 
B|-------15----------15----------15----------15----------15------| 
G|---------------------------------------------------------------| 
D|---------------------------------------------------------------| 
A|---------------------------------------------------------------| 
E|---------------------------------------------------------------| 
[ Tab from: http://www.guitartabs.cc/tabs/n/no_doubt/sixteen_solo_tab.html ]
E|-15p12----12-15b-15b----15br-12-------------------12-----------| 
B|-------15-----------------------15b-15p13-15---15----13--------| 
G|--------------------------------------------------------14-----| 
D|---------------------------------------------------------------| 
A|---------------------------------------------------------------| 
E|---------------------------------------------------------------| 

E|----------------------------------------| 
B|----------------------------------------| 
G|-14\(9)-7-5~---/14~--\12~----/17~-------| 
D|----------------------------------------| 
A|----------------------------------------| 
E|----------------------------------------| 
Comments