No Doubt - Running Chords & Tabs

 

Running Chords & Tabs

No Doubt Chords & Tabs

Version: 1 Type: Tab 0 ratings
1 star 2 stars 3 stars 4 stars 5 stars
comments

Running Tab

   
No Doubt
Running
Tabbed by Mustafa the Moose Sayed

Starts out with Keyboard (C Em Am G F), then acoustic guitar comes in

   C                                Em
E|-----------------------------------------------------------------
B|----1-------1-------1-------1--------0-------0-------0-------0---
G|--0---0---0---0---0---0---0---0----0---0---0---0---0---0---0---0-
D|-----------------------------------------------------------------
A|-3-------3-------3-------3---------------------------------------
E|----------------------------------0-------0-------0-------0------
 1.Run...                   Running All the Time      Running to the 

 2.Me...                    I'm the one you chose     Out of all the

 3.I'm so sorry that I'm falling    Help me up lets keep on running

   Am                               G               F
E|-----------------------------------------------------------------
B|----1-------1-------1-------1--------0-------0-------1-------1---
G|--2---2---2---2---2---2---2---2----0---0---0---0---2---2---2---2-
D|-----------------------------------------------------------------
A|-0-------0-------0-------0---------------------------------------
E|----------------------------------3-------3-------1-------1------
 1.future            with you right by my side

 2.people         You wanted me the most


   Am              G                F               G
E|-----------------------------------------------------------------
B|----1-------1-------0-------0--------1-------1-------0-------0---
G|--2---2---2---2---0---0---0---0----2---2---2---2---0---0---0---0-
D|-----------------------------------------------------------------
A|-0-------0-------------------------------------------------------
E|-----------------3-------3--------1-------1-------3-------3------
  3. Don't let me fall out of       love

Start playing chords
C
Running, running
As fast as we can
Em
Do you think you'll make it
(Do you think we'll make it?) 
      Am
We're running
Keep holding my hand
G               F
So we don't get separated

E|----0----------0------------0---------0--------------------------
B|-------1----------1------------0---------0-----------------------
G|-----------------------------------------------------------------
D|-----------------------------------------------------------------
A|-3----------3----------------------------------------------------
E|-------------------------0----------0----------------------------
[ Tab from: http://www.guitartabs.cc/tabs/n/no_doubt/running_tab.html ]
E|----0----------0------------0---------0--------------------------
B|-------1----------1------------1---------1-----------------------
G|-----------------------------------------------------------------
D|-----------------------------------------------------------------
A|-0---------------------------------------------------------------
E|------------3------------1----------3----------------------------
  
Drums Kick In


E|----0----------0------------0---------0--------------------------
B|-------1----------1------------0---------0-----------------------
G|-----------------------------------------------------------------
D|-----------------------------------------------------------------
A|-3----------3----------------------------------------------------
E|-------------------------0----------0----------------------------  
 1.Be            Be the one I need             Be the one I 

 2.Sometimes it's hard to keep on running, We work so much to keep it going

E|----0----------0------------0---------0--------------------------
B|-------1----------1------------1---------1-----------------------
G|-----------------------------------------------------------------
D|-----------------------------------------------------------------
A|-0----------0----------------------------------------------------
E|-------------------------3----------1----------------------------
 1.Trust most... Don't stop inspiring Me

E|----0----------0------------0---------0--------------------------
B|-------1----------1------------1---------1-----------------------
G|-----------------------------------------------------------------
D|-----------------------------------------------------------------
A|-0---------------------------------------------------------------
E|------------3------------1----------3----------------------------
 2.Don't make me want to give up 

Chorus Twice
C
Running, running
As fast as we can
Em
I really hope you make it
(Do you think we'll make it?) 
      Am
We're running
Keep holding my hand
G               F
So we don't get separated

E|-----------------------------------------------------------------
B|-----------------------------------------------------------------
G|-----------------------------------------------------------------
D|-2--0-----3--2------2--0-----3--2-----2--0-----3--2--------------
A|-------3--------3---------3--------3--------3--------3-----------
E|-----------------------------------------------------------------
                Doo Doo Doo Doo
E|-----------------------------------------------------------------
B|-----------------------------------------------------------------
G|-----------------------------------------------------------------
D|-----------------------------------------------------------------
A|-----------------------------------------------------------------
E|-3---------------------------------------------------------------
   The Future


Repeat Chorus Twice and songs ends on Keyboard.

Email me for any questions at Mustafalafa@hotmail.com

METALLICA RULES!!!
Comments