No Doubt - Open The Gate Chords & Tabs

 

Open The Gate Chords & Tabs

No Doubt Chords & Tabs

Version: 1 Type: Tab 0 ratings
1 star 2 stars 3 stars 4 stars 5 stars
comments

Open The Gate Tab

Intro (2x): 
E|--------------------------------------------------------------------| 
B|--------------------------------------------------------------------| 
G|--------------------------------5-6-6-----6-6----7-8-8-----8-8------| 
D|-8-8-----8-8----5-6-6----6-6----5-6-6-----6-6----7-8-8-----8-8----7-| 
A|-8-8-----8-8----5-6-6----6-6----3-4-4-x-x-4-4-xx-5-6-6-x-x-6-6-xx-7-| 
E|-6-6-x---6-6-xx-3-4-4----4-4-xx-----------------------------------5-| 

E|----------------------------------| 
B|----------------------------------| 
G|----------------------------------| 
D|-8-8-----8-8-----8-8-----6---7----| 
A|-8-8-----8-8-----8-8-----6---7----| 
E|-6-6-----6-6-----6-6-----4---5----| 

Verse (Gtr1: Palm mute): 

   Gtr1: 
E|--------------------------------------------------------| 
B|-11-11-11-11-10-9-9-9-9-8-8-8-8-11-11-11-11-------------| 
G|--------------------------------------------10-10-10-10-| 
D|--------------------------------------------------------| 
A|--------------------------------------------------------| 
E|--------------------------------------------------------| 
 | Gtr2:                                                   | 
E|-6--------------4-------3-------6-----------------------| 
B|-6--------------4-------4-------6-----------------------| 
G|-7--------------5-------3-------7-----------------------| 
D|-8--------------6-------5-------8-----------------------| 
A|-8--------------6-------6-------8-----------------------| 
E|-6--------------4---------------6-----------------------| 
[ Tab from: http://www.guitartabs.cc/tabs/n/no_doubt/open_the_gate_tab.html ]
   Gtr1: 
E|---------------------------------------------------------| 
B|-11-11-11-11----------------------------11-11-11---------| 
G|-------------12-12-12-13-13-13-12-12-12---------10-10-10-| 
D|---------------------------------------------------------| 
A|---------------------------------------------------------| 
E|---------------------------------------------------------| 
 | Gtr2:                                                    | 
E|-6-----------------3--4--------3--------6-------6--6--6--| 
B|-6-----------8-----3--4--------4--------6-------6--6--6--| 
G|-7-----------8-----4--5--------3--------7-------7--7--7--| 
D|-8-----------10----5--6--------5--------8-------8--8--8--| 
A|-8-----------10----5--6--------6-5-3----8-------8--8--8--| 
E|-6-----------8-----3--4-----------------6-------6--6--6--| 

Chorus (Open The Gate...): 

 __________________________ 
 |  Picked 8 times each:  | 
E|------------------------|----------------------------| 
B|------------------------|----------------------------| 
G|-----6-----------6---8--|----------------------------| 
D|-3---6---8---6---6---8--|-8-8-----8-8-----8-8---6-7--| 
A|-3---4---8---6---4---6--|-8-8-----8-8-----8-8---6-7--| 
E|-1-------6---4----------|-6-6-----6-6-----6-6---4-5--| 

Bridge to chorus (2nd time only): 

E|------------------| 
B|------------------| 
G|------------------| 
D|------------------| 
A|--3h5-3h5-3h5-3---| 
E|----------------6-| 

Do it right now...: 

E|-----------------------------------------------------| 
B|-----------------------------------------------------| 
G|-------------------------6-6---6-6---8-8---8-8-------| 
D|-8-8---8-8---6-6---6-6---6-6---6-6---8-8---8-8-------| 
A|-8-8---8-8---6-6---6-6---4-4---4-4---6-6---6-6-------| 
E|-6-6---6-6---4-4---4-4-------------------------------| 

Comments